Oops, an error
Loading. Please wait.

Para Ti tab

332 views 1 this week
no commentswrite comment
1 2 3 4 5
3 more votes to show rating
add to favorites
×
Save as Personal and add changes to this tab that will be seen only by you. Learn more ›
×
You can save this tab as Personal to edit and correct it or add notes. All changes will be seen only by you. Learn more »
launch autoscroll
font size
0
reset
how to read this tab
guitar tuner
edit
Autoscroll
slow
fast
+/-
esc
set tempo
stop
Hola amigos, me llamo Enrique y esta es mi primera aportación
, ya ven lo que uno hace cuando le apasiona la música.
Puse la letra prácticamente en el mismo lugar que las pisadas,
 para que se guíen  y le agarren el ritmo fácilmente
Sale, que les sirva bastante, califíquenla como les haya
servido y cualquier duda o comentario posteen, aquí andamos para seguir
sacando buen material para todos y gratuito gracias a
colaboradores como nosotros y la  ;).
Ciaoo


Acotaciones:
/ = Slide
P = Pull off
( ) Vibrato


INTRO:

e:----2--2-2--0-0--0-0---------2--2-2--0-0--0-0-I-
B:----4--4-4--2-2--2-2---------4--4-4--2-2--2-2-I-
G:----3--3-3--3-3--3-3---------3--3-3--3-3--3-3-I-
D:--4-4--4-4--2-2--2-2---0-2-4-4--4-4--2-2--2-2-I-
A:----------------------------------------------I-
E:----------------------------------------------I-


----------------------------4--3---2-4-2-X-------------0--I
-----------------2------2---4--3---2-4-2-X---2---3---3----I
------1--------2-2------------------------2---2---2-------I
----2-2------2-------2------------------------------------I
--2-------2-----------------------------------------------I
----------------------------------------------------------I


VERSO:

    Vienes tu aquí así,    sonríes para mí
e:----2--2-2--0-0--0-0---------2--2-2--0-0--0-0-I-
B:----4--4-4--2-2--2-2---------4--4-4--2-2--2-2-I-
G:----3--3-3--3-3--3-3---------3--3-3--3-3--3-3-I-
D:--4-4--4-4--2-2--2-2---0-2-4-4--4-4--2-2--2-2-I-
A:----------------------------------------------I-
E:----------------------------------------------I-

  y tú me sigues esperando               otra   vez
---------------------------4--3---2-4-2-X-------------0--I
----------------2------2---4--3---2-4-2-X---2---3---3----I
-----1--------2-2-------------------------2---2---2------I
---2-2------2-------2------------------------------------I
-2-------2-----------------------------------------------I
---------------------------------------------------------I


Tengo ya los cuadros que pinté hoy para tí

e:----2--2-2--0-0--0-0---------2--2-2--0-0--0-0-I-
B:----4--4-4--2-2--2-2---------4--4-4--2-2--2-2-I-
G:----3--3-3--3-3--3-3---------3--3-3--3-3--3-3-I-
D:--4-4--4-4--2-2--2-2---0-2-4-4--4-4--2-2--2-2-I-
A:----------------------------------------------I-
E:----------------------------------------------I-


 y yo espero aquí     sentado            otra vez
---------------------------4--3---2-0-2-0-------------0--I
----------------2------2---4--3---2-1-2-0---2---3---3----I
-----1--------2-2-------------------------2---2---2------I
---2-2------2-------2------------------------------------I
-2-------2-----------------------------------------------I
---------------------------------------------------------I


CORO:

    Inspiración yo veo en tí, cuando tu estás cerca

e:--0--0-0-0-0--0--0-0-0-0--0--0-0-0-0--0--0-0-0-0-I-
B:--2--2-2-2-0--0--0-0-0-0--2--2-2-2-0--0--0-0-0-0-I-
G:--2--2-2-2-0--1--1-1-1-0--2--2-2-2-0--1--1-1-1-0-I-
D:--2--2-2-2-0--2--2-2-2-0--2--2-2-2-0--2--2-2-2-0-I-
A:--0--0-0-0-0--2--2-2-2-0--0--0-0-0-0--2--2-2-2-0-I-
E:--0--0-0-0-0--0--0-0-0-0--0--0-0-0-0--0--0-0-0-0-I-


de mí, porque yo sé que     tu...
-0--0-0-0-0--0--0-0-0-0--2--2-2-2-2-2-2-2-------------I
-2--2-2-2-0--0--0-0-0-0--2--2-2-2-2-2-2-2-------------I
-2--2-2-2-0--1--1-1-1-0--3--3-3-3-3-3-3-4-------------I
-2--2-2-2-0--2--2-2-2-0--4--4-4-4-4-4-4-4-------------I
-0--0-0-0-0--2--2-2-2-0--4--4-4-4-4-4-4-2-------------I
-0--0-0-0-0--0--0-0-0-0--2--2-2-2-2-2-2-2-------------I


    Sé que tu me  quieres...       Sé que
e:--------------------------------------------i
B:--------------------------------7-----------i
G:---------------------2/4/7--6-8---8---------i
D:------------------------------------8-------i
A:--------------------------------------------i
E:--------------------------------------------i


tu me quieres...

---------------------------------------
-----------7-7-7-7-7-------------------
-----2/4/7-----------------------------
---------------------------------------
---------------------------------------
---------------------------------------


SOLO:

e:-----------------------------------------
B:----4------2----2---4/7-7/4-(2)----2---5-
G:-------2-3----4---4--------------4---4---
D:-----------------------------------------
A:-----------------------------------------
E:-----------------------------------------


-----------5--5-5-5-5-4-7-4/3-7-3/2---2--2P0--2-12--I
-5-5---5-7------------------------------------------I
-----6----------------------------------------------I
----------------------------------------------------I
----------------------------------------------------I
----------------------------------------------------I


CORO:

    Inspiración yo veo en tí, cuando tu estás cerca
e:--0--0-0-0-0--0--0-0-0-0--0--0-0-0-0--0--0-0-0-0-I-
B:--2--2-2-2-0--0--0-0-0-0--2--2-2-2-0--0--0-0-0-0-I-
G:--2--2-2-2-0--1--1-1-1-0--2--2-2-2-0--1--1-1-1-0-I-
D:--2--2-2-2-0--2--2-2-2-0--2--2-2-2-0--2--2-2-2-0-I-
A:--0--0-0-0-0--2--2-2-2-0--0--0-0-0-0--2--2-2-2-0-I-
E:--0--0-0-0-0--0--0-0-0-0--0--0-0-0-0--0--0-0-0-0-I-


de mí, porque yo sé que     tu...
-0--0-0-0-0--0--0-0-0-0--2--2-2-2-2-2-2-2-------------I
-2--2-2-2-0--0--0-0-0-0--2--2-2-2-2-2-2-2-------------I
-2--2-2-2-0--1--1-1-1-0--3--3-3-3-3-3-3-4-------------I
-2--2-2-2-0--2--2-2-2-0--4--4-4-4-4-4-4-4-------------I
-0--0-0-0-0--2--2-2-2-0--4--4-4-4-4-4-4-2-------------I
-0--0-0-0-0--0--0-0-0-0--2--2-2-2-2-2-2-2-------------I


Sé que tu me  quieres...       Sé que tu me quieres...

e:-------------------------------------------------
B:--------------------------------7----------------
G:---------------------2/4/7--6-8---8--------------
D:------------------------------------8------------
A:-------------------------------------------------
E:-------------------------------------------------


-----------------0-----------------/I
------9/6/4P0----0-----------------/I
2/4/7----------1-------------------/I
-----------------2-----------------/I
-----------------2-----------------/I
-----------------0-----------------/I
Suggest correction
Creating personal tab
Creating personal tab
You can edit any tab online and save it as your Personal.

You can edit, replace or remove any tab part or add personal notes – all changes will be seen only by you.

Personal tabs can be accessed anytime from any device, even offline.
Learn more »
Give kudos to tab author, rate the tab!
1 2 3 4 5
comments
print report bad tab
guest
Wanna post a correction for this tab? Suggest correction