Oops, an error
Loading. Please wait.

Be Bass Tab

version 2
version 2

Whole song

Interactive

2,300 views 1 this week
1 commentread comment
1 2 3 4 5
1 last vote to show rating
add to favorites
launch autoscroll
font size
0
reset
guitar tuner
Autoscroll
slow
fast
+/-
esc
set tempo
stop
Help us to improve Ultimate-Guitar.com Take our survey!
×
Difficulty
novice
all this is my first posted tab. im sure this is how its played though.


Intro:

G|----------------------------------------------|
D|----------------------------------------------|
A|-----0-----------------3h5p3------------------|
E|-3-2-------0-5------2------------0-2-3--2p0h2-|



Verse/Chorus:

G|---------------------------------|
D|---------------------------------|  repeat for the
A|---5-2-----5-2-----5-2-----5-3---| rest of the song
E|-3-----3-2-----2-3-----3-2-----2-|


alright thats it, quick, easy, now take it for a walk
Suggest correction
Give kudos to tab author, rate the tab!
1 2 3 4 5
comments
print report bad tab
1 comment total.
0 reply
RedPinkDeathGo 72 Jan 02, 2007 10:06 PM

terrible

guest
You may want to rate the tab now too:
select rating
Wanna post a correction for this tab? Suggest correction