Oops, an error
Loading. Please wait.

Be Bass Tab

version 3
version 3

Whole song

Interactive

10,606 views 21 this week
1 commentread comment
1 2 3 4 5
x 4
add to favorites
launch autoscroll
font size
0
reset
guitar tuner
×
Best way to learn
"Be"
Autoscroll
slow
fast
+/-
esc
set tempo
stop
Okay i noticed a couple other people tried to do this tab... no offense but your both 
heres the real deal, also at first u may think this sounds to high but keep in mind the 
is played with a standup bass

Intro
G]-------------------------------------------------|
D]-----5---------------7h8p7\5---------------------|  [x1]
A]-6-5---------8-----5----------------5------------|
E]-----------8--------------------6-8---8-66-8-----|

Verse
G]-------------------------------------------------|
D]---8-55-----7-4----------8-5-----7-4-------------|  [x7]
A]-6------6p5-----5------6-----6p5-----5-----------|
E]-------------------------------------------------|

Bridge
G]-------------------------------------------------|
D]---8---8---8---8---------------------------------|  [x1]
A]-6---6---6---6-----------------------------------|
E]-------------------------------------------------|


Okay so your gonna play the INTRO once through (listen to song for timing)
then go right into the VERSE, after playing this seven times through you do the BRIDGE 
then go right back into the VERSE.
Have fun
Suggest correction
comments
print report bad tab
1 comment total.
0 reply
RedPinkDeathGo 72 Jan 02, 2007 05:07 PM

wrong wrong wrong

guest
You may want to rate the tab now too:
select rating
Wanna post a correction for this tab? Suggest correction