Oops, an error
Loading. Please wait.

Be Bass Tab

version 4
version 4

Whole song

Interactive

12,041 views 15 this week
3 commentsread comments
1 2 3 4 5
x 16
add to favorites
launch autoscroll
font size
0
reset
guitar tuner
Autoscroll
slow
fast
+/-
esc
set tempo
stop
Help us to improve Ultimate-Guitar.com Take our survey!
×
Author
Difficulty
Ok so it seems nobody can get the f**king simplest song in the world right so here it is:

BASS
Intro
G]---------------------------------------------------|
D]-----5---------------7h8p7\5-----------------------|  [x1]
A]-6-5---------8-----5----------------5--------------|
E]-----------8--------------------6-8---8-6-8--------|

Verse
G]---------------------------------------------------|
D]---8-55-----7-------------8-5-----7----------------|  [x7]
A]-6------6p5----8-5------6-----6p5----8-5-----------|
E]---------------------------------------------------|

Bridge
G]-------------------------------------------------|
D]---8---8---8---8---------------------------------|  [x1]
A]-6---6---6---6-----------------------------------|
E]-------------------------------------------------|

Keyboard/techno (BASS style)

Intro
G]----33---33---5-77---33---33-5-2-----------------------|
D]--5----5----5------5----5--------33--------------------|  [x1]
A]-------------------------------------------------------|
E]-------------------------------------------------------|

G]----33---33---5-77-8-10-8-7-12-10----7-3/5--2--------|
D]--5----5----5----------------------10-------3--------|
A]-----------------------------------------------------|
E]-----------------------------------------------------|


Those last tabs by those newbies pissed me off, i am angry wa wa we wa
Suggest correction
comments
print report bad tab
3 comments total.
0 reply
adamowns 16 Sep 10, 2007 01:56 AM

awesome tab..i am angry wa wa we wa lmfao

0 reply
jamminbass 72 Apr 28, 2008 03:04 AM

This is correct.
One thing though, the fact that it is played on an upright bass leads me to believe that it would be in open position. So:

|--3-00----2------3-0----2-------------------------|
|-1----1p0---3-0-1----1-0-3-0----------------------|
|--------------------------------------------------|
|--------------------------------------------------|

It's just a nitpicky thing. Good tab though, thank you for the proper notes.

0 reply
robloxkrazy621 33 Mar 10, 2015 08:08 PM

In. Love. With. This. Thank you so much for this!

guest
You may want to rate the tab now too:
select rating
Wanna post a correction for this tab? Suggest correction