Oops, an error
Loading. Please wait.

Oscar Wilde tab

version 1
version 1

Whole song

Interactive

16,593 views 1 this week
2 commentsread comments
1 2 3 4 5
x 7
add to favorites
×
Save as Personal and add changes to this tab that will be seen only by you. Learn more ›
×
You can save this tab as Personal to edit and correct it or add notes. All changes will be seen only by you. Learn more »
launch autoscroll
font size
0
reset
how to read this tab
guitar tuner
edit
Autoscroll
slow
fast
+/-
esc
set tempo
stop
Author
Difficulty
Company Of Thieves-Oscar Wilde

I dont know every little part played but i know most of it.My first tab so dont be harsh.


Chords:
          C#m  B  E  A  F#m*
      e ---4--(2)-0--0---0------|
      b ---5---4--0--2---0------|
      G ---6---4--1--2---2------|
      D ---6---4--2--2---4------|
      A ---4---2--2--0---4------|
      E ----------0-----(2)-----|

*i dont know the exact name for that chord but its something like that.

I=2nd guitar
II=lead guitar


   e --x-4-4-4-------4-4-4-------4-4-4---------4-4-4------------------------|
   b --x-5-4-4-------5-4-4-------5-4-4---------5-4-4------------------------|
   G --x-6-4-4-------6-4-4-------6-4-4---------6-4-4------------------------|
I  D --x-6-4-4-------6-4-4-------6-4-4---------6-4-4------------------------|
   A --x-4-4-4-------4-4-4-------4-4-4---------4-4-4------------------------|
   E -----------------------------------------------------------------------|


   e -----------------------------------------------------------------------|
   b -----------------------------------------------------------------------|
   G -----------------------------------------------------------------------|
II D -------------------------------------------------/11\------------------|
   A -----------------------------------------------------------------------|
   E -----------------------------------------------------------------------|


   e --4-4-4---------4-4-4--------------------------------------------------|
   b --5-4-4---------5-4-4-----------4~-------------------------------------|
   G --6-4-4---------6-4-4-----------4~-------------------------------------|
I  D --6-4-4---------6-4-4-----------4~-------------------------------------|
   A --4-4-4---------4-4-4-----------2~-------------------------------------|
   E -----------------------------------------------------------------------|


   e -------9-9-9---------9-9\----------------------------------------------|
   b -------9-9-9---------9-9\----------------------------------------------|
   G -------9-9-9---------9-9\----------------------------------------------|
II D --9-11----------9-11--------------------4/6-4\2--1-2-4-----------------|
   A -------------------------------/4--2-4-----------------2/4--2----------|
   E -----------------------------------------------------------------------|

   e --4-4-4---------4-4-4--------------------------------------------------|
   b --5-4-4---------5-4-4--------------4~----------------------------------|
   G --6-4-4---------6-4-4--------------4~----------------------------------|
I  D --6-4-4---------6-4-4--------------4~----------------------------------|
   A --4-4-4---------4-4-4--------------2~----------------------------------|
   E -----------------------------------------------------------------------|


   e ----------------------9-9----------------------------------------------|
   b ----------------------9-9----------------------------------------------|
   G -------9b10-----------9-9-----------------6/8--6\4-------4h6p4---------|
II D --9-11------11---9-11--------------/6-4h6--------------6---------------|
   A -----------------------------------------------------------------------|
   E -----------------------------------------------------------------------|

Verse:
    C#m                         B
    Episodes and parallels, and don't you want the invitation
    C#m
    Big bright accent, catty smile
    B
    Oscar Wilde confrontation

    C#m B
    Oh, live like it's the style
    C#m      B
    Whoa, we waltz on your front porch

Chorus:

    C#m                       E                  A
    We are all our own devil, we are our own devil
           C#m            E    A
    And we make this world our hell
    C#m                       E                  A
    We are all our own devil, we are our own devil
           C#m            E    A
    And we make this world our hell


2nd Verse:

    C#m                        B
    Porcelain teacups decorate tables and the conversation
    C#m
    Beauty pageants all the time
         B                                C#m
    It's running out, the time is running out

    B
    Live like it's the style
    C#m      B
    Whoa, we waltz on your front porch


play chorus twice, then


"Time" section:

    F#m                                             E
    Time keeps on ticking away, It's always running away

    Always running from time


play that like 8 time i think, then


   e -----------------------------------------------------------------------|
   b -----------------------------------------------------------------------|
   G -9-9-9-9-9-9-9-9-8-8-8-8-8-8-8--8h9p8\1-1-1-1-1-2-4--------------------|
   D ----------------------------------------------------4-4-4-4--2/6b7r6---|
   A -----------------------------------------------------------------------|
   E -----------------------------------------------------------------------|

   e ------0-----0---0-----0-----0---0------------0---------------------0---|
   b ----0-----0---------0-----0----------------0---0-----------------0-----|
   G --9-----9-----9---8-----8-----8------11/13--------11/13-11-9-11--------|
   D -----------------------------------------------------------------------|
   A -----------------------------------------------------------------------|
   E -----------------------------------------------------------------------|

   e -----------------------------------------------------------------------|
   b -----------------------------------------------------------------------|
   G -11/13-11\9------------------------------------------------------------|
   D ------------11---------------------------------------------------------|
   A -----------------------------------------------------------------------|
   E -----------------------------------------------------------------------|

play the chorus twice, then at the last part when she says

"oh oh, we make it our hell", play this


   e -----------------------------------------------------------------------|
   b ------12--14b16r14-----5------5------5------5------5----------5--------|
   G --/13--------------------6------6------6------6------6----------6------|
   D ---------------------------6------6------6------6------6----------6----|
   A ---------------------4-------------------------------------4-----------|
   E -----------------------------------------------------------------------|


   e ---------------------------4-4-4---------------------------------------|
   b -5------5------5------5----5-4-4---------------------------------------|
   G ---6------6------6------6--6-4-4---------------------------------------|
   D -----6------6------6-------6-4-4---------------------------------------|
   A ---------------------------4-4-4---------------------------------------|
   E -----------------------------------------------------------------------|


the end!

Key:

   /-slide up
   \-slide down
   b-bend
   r-release
   h-hammer on
   p-pull off
   x-muted note
   ~-hold note(s)

            
            
Suggest correction
Creating personal tab
Creating personal tab
You can edit any tab online and save it as your Personal.

You can edit, replace or remove any tab part or add personal notes – all changes will be seen only by you.

Personal tabs can be accessed anytime from any device, even offline.
Learn more »
comments
print report bad tab
2 comments total.
0 reply
eRan131 10 Feb 10, 2010 08:20 AM

Omg i love you! thank you so much! this made my day :) the tab is amazing

+1 reply
Tsmalls94 10 Feb 13, 2010 10:22 AM

Ok so i just have a couple corrections for the tabs above,,,,

the verses should be C#m but instead of B it should be Emaj7

and the chorus should be C#m and E but instead of A it should be Amaj7

and the Bridge is an F#m

Tell me what you think, these are the chords directly from the band themselves
I hope i could help, and thanks so much for for tabing the song

guest
You may want to rate the tab now too:
select rating
Wanna post a correction for this tab? Suggest correction