Oops, an error
Loading. Please wait.

Diana chords

by Comus
757 views 27 this week
no commentswrite comment
1 2 3 4 5
x 3
add to favorites
×
Save as Personal and add changes to this tab that will be seen only by you. Learn more ›
×
You can save this tab as Personal to edit and correct it or add notes. All changes will be seen only by you. Learn more »
launch autoscroll
font size
0
reset
transpose
0
reset
simplify chords
display chords
guitar tuner
edit
Autoscroll
slow
fast
+/-
esc
set tempo
stop
Author
Difficulty
Strumming
There is no strumming pattern for this song yet. and get +5 IQ
"Diana" 
by COMUS
from "First Utterance" (1971)

A good place to start is with the bass/cello line, which looks like this:
e|------------------------|
B|------------------------|
G|-------------3-2--------|   (repeat)
D|--------5---------4-5---|
A|--3---------------------|
E|------------------------|

Cm
Lust he follows virtue close
Ab                   Cm
Through the steaming woodlands
Cm
His darkened blood through bulging veins
Ab                   Cm
Through the steaming woodlands
Cm .......
Aah, aah
Cm
Virtue knows he follows softly
Ab                   Cm
Through the steaming woodlands
Cm       
Travel light the deathly shudder
Ab             Cm
Down the leafy pathway
Cm ................
Aah, ah, aah, ah

Bb       Cm
La-la-la-la-la-la   
    Bb                  Cm      Bb                 Cm
The dim light she comes peering through the forest pines
        Bb                        Cm             Bb            Cm
And she knows by the sound of the baying, by the baying of the hounds
Bb                    Cm
Diana Diana kick your feet up
     Bb                  Cm
Lust bears his teeth and whines
         Bb                     Cm
For he's picked up the scent of virtue
       Bb              Cm/G      Bb/F     Eb      Bb
And he knows the panic signs..............................

e|------------------------------------|
B|--4--------3------------------------|
G|--5--------3--------5--------3------|
D|--5--------3--------5--------3------|
A|--------------------6--------1------|
E|------------------------------------|

   Cm  Bb  Cm  Bb  Cm  Bb  Cm  Bb
e|----------------------------------|
B|--4---3---4---3---4---3---4---3---|
G|--5---3---5---3---5---3---5---3---|
D|--5---3---5---3---5---3---5---3---|
A|--3-------3-------3-------3-------|
E|----------------------------------|


[Followed by violin break]


Cm   Bb    Eb               Bb       Cm         Bb     Ab  Cm
Lust cries running with his eyes the white-clad figure fleeting
Cm  Bb     Eb     Bb       Cm     Bb        Ab  Cm           
Mud burrrrrns his eyes but desire burns his mind
Cm          Bb          Cm     Bb    Ab                   Cm    
Fear in her eyes as the forest grins through the steaming woodlands
Cm       Bb      Cm     Bb   Ab       Ab   Cm
Lust now his destroy-ed with emnity disarm-ed


[Percussion break]

Bb            Cm
Diana, Diana, Diana, Diana
Bb            Cm
Diana, Diana, Diana, Diana
Bb            Cm
Diana, Diana, Diana, Diana
Bb            Cm
Diana, Diana, Diana, Diana

    Bb                  Cm      Bb                 Cm
The dim light she comes peering through the forest pines
        Bb                        Cm             Bb            Cm
And she knows by the sound of the baying, by the baying of the hounds
  Bb                  Cm
Diana Diana kick your feet up
     Bb                  Cm
Lust bears his teeth and whines
         Bb                     Cm
For he's picked up the scent of virtue
       Bb              Cm/G   Bb/F   Eb   Bb    
And he knows the panic signs................

e|------------------------------------|
B|--4--------3------------------------|
G|--5--------3--------5--------3------|
D|--5--------3--------5--------3------|
A|--------------------6--------1------|
E|------------------------------------|


   Cm  Bb  Cm  Bb  Cm  Bb  Cm  Bb
e|----------------------------------|
B|--4---3---4---3---4---3---4---3---|
G|--5---3---5---3---5---3---5---3---|
D|--5---3---5---3---5---3---5---3---|
A|--3-------3-------3-------3-------|
E|----------------------------------|

  
Bb                    Cm
Diana Diana kick your feet up
     Bb                  Cm
Lust bears his teeth and whines
         Bb                     Cm
For he's picked up the scent of virtue
       Bb              Cm/G   Bb/F   Eb    Bb
And he knows the panic signs.................

e|------------------------------------|
B|--4--------3------------------------|
G|--5--------3--------5--------3------|
D|--5--------3--------5--------3------|
A|--------------------6--------1------|
E|------------------------------------|

   Cm  Bb  Cm  Bb  Cm  Bb  Cm  Bb
e|----------------------------------|
B|--4---3---4---3---4---3---4---3---|
G|--5---3---5---3---5---3---5---3---|
D|--5---3---5---3---5---3---5---3---|
A|--3-------3-------3-------3-------|  till fade out
E|----------------------------------| 
Diana.... Diana.... Diana.... Diana..... 

            
            
Suggest correction
Creating personal tab
Creating personal tab
You can edit any tab online and save it as your Personal.

You can edit, replace or remove any tab part or add personal notes – all changes will be seen only by you.

Personal tabs can be accessed anytime from any device, even offline.
Learn more »
Give kudos to tab author, rate the tab!
1 2 3 4 5
comments
print report bad tab
guest
You may want to rate the tab now too:
select rating
Wanna post a correction for this tab? Suggest correction