Oops, an error
Loading. Please wait.

Bloodletting The Vampire Song tab

1,168 views 18 this week
no commentswrite comment
1 2 3 4 5
2 more votes to show rating
add to favorites
×
Save as Personal and add changes to this tab that will be seen only by you. Learn more ›
×
You can save this tab as Personal to edit and correct it or add notes. All changes will be seen only by you. Learn more »
launch autoscroll
font size
0
reset
how to read this tab
guitar tuner
edit
Autoscroll
slow
fast
+/-
esc
set tempo
stop
Concrete Blonde - Bloodletting (the Vampire song)

[Intro]

Bass riff 1 x4 (only bass, no guitar)
 (E5)    (G5)    (F#5)       (F5) (E5)    (G5)    (F#5)       (F5)
G|--------------------------------|--------------------------------|
D|--------------------------------|--------------------------------|
A|--------------------------------|--------------------------------|
E|0-----0-3-----3-2---------2-1---|0-----0-3-----3-2---------2-1---|

 (E5)    (G5)    (F#5)       (F5) (E5)    (G5)    (F#5)       (F5)
G|--------------------------------|--------------------------------|
D|--------------------------------|--------------------------------|
A|--------------------------------|--------------------------------|
E|0-----0-3-----3-2---------2-1---|0-----0-3-----3-2---------2-1---|

Bass riff 1 x4 + guitar intro x2
 (E5)    (G5)    (F#5)       (F5) (E5)    (G5)    (F#5)       (F5)
e|--------------------------------|--------------------------------|
B|--------------------------------|--------------------------------|
G|--------------------------------|--------------------------------|
D|--------------------------------|--------------------------------|
A|--------------------------------|--------5-------4-----------3---|
E|0-------3-------2-----------1---|0-------------------------------|

G|--------------------------------|--------------------------------|
D|--------------------------------|--------------------------------|
A|--------------------------------|--------------------------------|
E|0-----0-3-----3-2---------2-1---|0-----0-3-----3-2---------2-1---|

 (E5)    (G5)    (F#5)       (F5) (E5)    (G5)    (F#5)       (F5)
e|--------------------------------|--------------------------------|
B|--------------------------------|--------------------------------|
G|--------------------------------|--------------------------------|
D|--------------------------------|--------------------------------|
A|--------------------------------|--------5-------4-----------3---|
E|0-------3-------2-----------1---|0-------------------------------|

G|--------------------------------|--------------------------------|
D|--------------------------------|--------------------------------|
A|--------------------------------|--------------------------------|
E|0-----0-3-----3-2---------2-1---|0-----0-3-----3-2---------2-1---|

Bass riff 2 + guitar chords x4
  E5      G5      F#5     F5       E5      G5      F#5     F5
G|--------------------------------|--------------------------------|
D|--------------------------------|--------------------------------|
A|--------------------------------|--------------------------------|
E|0-----0-3-----3-2-----2-1-----1-|0-----0-3-----3-2-----2-1-----1-|

  E5      G5      F#5     F5       E5      G5      F#5     F5
G|--------------------------------|--------------------------------|
D|--------------------------------|--------------------------------|
A|--------------------------------|--------------------------------|
E|0-----0-3-----3-2-----2-1-----1-|0-----0-3-----3-2-----2-1-----1-|


[Verse 1]

            E5          G5            F#5      F5      E5 G5 F#5 F5 (Bass riff 2)
There's a crack in the mirror and a bloodstain on the bed
            E5          G5            F#5      F5      E5 G5 F#5 F5 (Bass riff 2)
There's a crack in the mirror and a bloodstain on the bed
     E5         G5          F#5           F5      E5      G5 F#5 F5 (Bass riff 2)
Oh, you were a vampire and baby, I'm the walking dead
     E5         G5          F#5           F5      E5      G5 F#5 F5 (Bass riff 2)
Oh, you were a vampire and baby, I'm the walking dead


[Chorus]

           E5       G5       A5    C5                (Bass riff 3)
I got the ways and means to New Orleans
           E5          G5               A5        C5 (Bass riff 3)
I'm going down by the river where it's warm and green
           E5      G5       A5    C5                 (Bass riff 3)
I'm gonna have a drink and walk around
   B5    B5      B5    B5                            (Bass riff 4)
I got a lot to think about


[Bridge]

     E5 G5 F#5 F5 (Bass riff 2) x4
Oh, yeah


[Verse 2]

           E5       G5          F#5    F5       E5 G5 F#5 F5 (Bass riff 2)
There's a rocking chair by the window down the hall
        E5         G5           F#5   F5       E5 G5 F#5 F5  (Bass riff 2)
I hear something there in the shadow down the hall
     E5         G5          F#5      F5        E5 G5 F#5 F5  (Bass riff 2)
Oh, you were a vampire and now I am nothing at all
     E5         G5          F#5      F5        E5 G5 F#5 F5  (Bass riff 2)
Oh, you were a vampire and now I am nothing at all


[Chorus]

           E5       G5       A5    C5                (Bass riff 3)
I got the ways and means to New Orleans
           E5          G5               A5        C5 (Bass riff 3)
I'm going down by the river where it's warm and green
           E5      G5       A5    C5                 (Bass riff 3)
I'm gonna have a drink and walk around
   B5    B5      B5    B5                            (Bass riff 4)
I got a lot to think about


[Bridge]

     E5 G5 F#5 F5 (Bass riff 2) x4
Oh, yeah


[Solo]

E5 G5 F#5 F5 (Bass riff 2)   x8
[no chords]  (Bass riff 1)   x4
E5 G5 F#5 F5 (Bass riff 2)   x4


[Verse 3]

              E5           G5            F#5   F5      E5  G5 F#5 F5 (Bass riff 2)
They used to dance in the garden in the middle of the night
        E5          G5            F#5   F5      E5 G5 F#5 F5         (Bass riff 2)
Dancing out in the garden in the middle of the night
     E5         G5         F#5          F5      E5  G5 F#5 F5        (Bass riff 2)
Oh, you were a vampire and I may never see the light
     E5         G5         F#5          F5      E5  G5 F#5 F5        (Bass riff 2)
Oh, you were a vampire and I may never see the light


[Chorus] x2

           E5       G5       A5    C5                (Bass riff 3)
I got the ways and means to New Orleans
           E5          G5               A5        C5 (Bass riff 3)
I'm going down by the river where it's warm and green
           E5      G5       A5    C5                 (Bass riff 3)
I'm gonna have a drink and walk around
   B5    B5      B5    B5                            (Bass riff 4)
I got a lot to think about


[Bridge] x2

     E5 G5 F#5 F5 (Bass riff 2) x4
Oh, yeah


     [no chords]  (Bass riff 1) x1
Oh, yeah

     [no chords]  (Bass riff 1) x1
         

[Bass and guitar outro]

  E5      G5      F#5         F5   E5      G5      F#5     F#5
e|--------------------------------|--------------------------------|
B|--------------------------------|--------------------------------|
G|--------------------------------|--------------------------------|
D|--------------------------------|--------------------------------|
A|--------------------------------|--------------------------------|
E|0-------3-------2-----------1---|0-------3-------2-------2---2---|

G|--------------------------------|--------------------------------|
D|--------------------------------|--------------------------------|
A|--------------------------------|--------------------------------|
E|0-----0-3-----3-2---------2-1---|0-----0-3-----3-2-------2---2---|

  E5
e|--------------------------------|
B|--------------------------------|
G|--------------------------------|
D|--------------------------------|
A|--------------------------------|
E|0-------------------------------|

G|--------------------------------|
D|--------------------------------|
A|--------------------------------|
E|0-------------------------------|
         
#####################################################################################
---Tabs reference---

Bass riff 1:
  E5      G5      F#5         F5
G|--------------------------------|
D|--------------------------------|
A|--------------------------------|
E|0-----0-3-----3-2---------2-1---|

Bass riff 2:
  E5      G5      F#5     F5
G|--------------------------------|
D|--------------------------------|
A|--------------------------------|
E|0-----0-3-----3-2-----2-1-----1-|

Bass riff 3:
  E5      G5      A5      C5
G|--------------------------------|
D|--------------------------------|
A|------------------------3-----3-|
E|0-----0-3-----3-5-----5---------|

Bass riff 4:
  B5      B5      B5      B5
G|--------------------------------|
D|--------------------------------|
A|--------------------------------|
E|7-----7-7-----7-7-----7-7-----7-|

Bass outro:
  E5      G5      F#5         F5   E5      G5      F#5     F#5
G|--------------------------------|--------------------------------|
D|--------------------------------|--------------------------------|
A|--------------------------------|--------------------------------|
E|0-----0-3-----3-2---------2-1---|0-----0-3-----3-2-------2---2---|
  E5
G|--------------------------------|
D|--------------------------------|
A|--------------------------------|
E|0-------------------------------|

Guitar intro:
  E5      G5      F#5         F5   E5      G5      F#5         F5
e|--------------------------------|--------------------------------|
B|--------------------------------|--------------------------------|
G|--------------------------------|--------------------------------|
D|--------------------------------|--------------------------------|
A|--------------------------------|--------5-------4-----------3---|
E|0-------3-------2-----------1---|0-------------------------------|

Guitar outro:
  E5      G5      F#5         F5   E5      G5      F#5     F#5
e|--------------------------------|--------------------------------|
B|--------------------------------|--------------------------------|
G|--------------------------------|--------------------------------|
D|--------------------------------|--------------------------------|
A|--------------------------------|--------------------------------|
E|0-------3-------2-----------1---|0-------3-------2-------2---2---|
  E5
e|--------------------------------|
B|--------------------------------|
G|--------------------------------|
D|--------------------------------|
A|--------------------------------|
E|0-------------------------------|

            
            
Suggest correction
Creating personal tab
Creating personal tab
You can edit any tab online and save it as your Personal.

You can edit, replace or remove any tab part or add personal notes – all changes will be seen only by you.

Personal tabs can be accessed anytime from any device, even offline.
Learn more »
Give kudos to tab author, rate the tab!
1 2 3 4 5
comments
print report bad tab
guest
You may want to rate the tab now too:
select rating
Wanna post a correction for this tab? Suggest correction