Oops, an error
Loading. Please wait.

Eternally Gutted tab

version 2
version 2

Whole song

855 views 3 this week
no commentswrite comment
1 2 3 4 5
x 4
add to favorites
×
Save as Personal and add changes to this tab that will be seen only by you. Learn more ›
×
You can save this tab as Personal to edit and correct it or add notes. All changes will be seen only by you. Learn more »
launch autoscroll
font size
0
reset
how to read this tab
guitar tuner
edit
Autoscroll
slow
fast
+/-
esc
set tempo
stop
CONDUCTING FROM THE GRAVE
ETERNALLY GUTTED
C-G-C-F-A-D

*=PALM MUTE

TABBED BY-andherembrace

tab includes whole song w/both gtrs

0:00
L
----------------------------------------------------------------|
-------------------------------10-------------------------------|
------111111111111------------------12-11-9-11-9--11-9---9------|
999999------------121212121212------------------12-----12--12-11|
----------------------------------------------------------------|
----------------------------------------------------------------|
R
-----------------------------------------------------------|
-----------------------------------------------------------|
--------------------------7--------------------------------|
------999999-------------------10-9-7-9-7----9-7----7------|
777777------101010101010------------------10-----10---10-9-|
-----------------------------------------------------------|

0:03
L
------------------------------------------------------|
--------------------------8------------------------P--|
------999999------------------11-9-7-9-7----9-7----H--|
777777------111111111111-----------------11-----11-7--|
------------------------------------------------------|
------------------------------------------------------|
R
------------------------------------------------|
------------------------------------------------|
--------------------5--------------------P------|
------777777-------------9-7-5-7-5---7-5-H------|
555555------999999-----------------9-----5------|
------------------------------------------------|

0:06
L
--------------------------------------------------------------------|
---------------------------------10---------------------------------|
------111111111111------------------------12-11-9-11-9--11-9--9-----|
999999------------121212121212------------------------12----12-12-11|
--------------------------------------------------------------------|
--------------------------------------------------------------------|
R
-----------------------------------------------------------|
-----------------------------------------------------------|
--------------------------7--------------------------------|
------999999-------------------10-9-7-9-7----9-7----7------|
777777------101010101010------------------10-----10---10-9-|
-----------------------------------------------------------|

0:08
         _               _
L       / \             / \                _                __
-------5-8-5-----------5-8-5--------------/ \--------------/  \-----|
------7-----7-4-------7-----7------------8-7-8-----------12-10-12-PH|
---4-7---------5-----5-------5----------7-----9--------11---------12|
--5-------------7-4-7---------7-4-7----9-------------12-------------|
-7-----------------------------------10------------14---------------|
--------------------------------------------------------------------|
         _             _
R       / \           / \                 _             _
-------2-5-2---------2-5-2---------------/ \-----------/ \--P--|
------3-----3-------3-----3-------------8-7-8---------8-7-8-H--|
-----4-------4-----2-------2-----------7-----9-------7------9--|
--2-5---------5-4-4---------4---4-----9-------------9----------|
-3---------------5------------5-----10------------10-----------|
---------------------------------------------------------------|


0:14
L
--------------------------------------------------------------------|
--------------------------------10----------------------------------|
------111111111111------------------------12-11-9-11-9--11-9--9-----|
999999------------121212121212------------------------12----12-12-11|
--------------------------------------------------------------------|
--------------------------------------------------------------------|
R
-----------------------------------------------------------|
-----------------------------------------------------------|
--------------------------7--------------------------------|
------999999-------------------10-9-7-9-7----9-7----7------|
777777------101010101010------------------10-----10---10-9-|
-----------------------------------------------------------|

0:17
L
------------------------------------------------------|
--------------------------8------------------------P--|
------999999------------------11-9-7-9-7----9-7----H--|
777777------111111111111-----------------11-----11-7--|
------------------------------------------------------|
------------------------------------------------------|
R
------------------------------------------------|
------------------------------------------------|
---------------------5-------------------P------|
------777777-------------9-7-5-7-5---7-5-H------|
555555------999999-----------------9-----5------|
------------------------------------------------|

0:20
L
--------------------------------------------------------------------|
--------------------------------10----------------------------------|
------111111111111------------------------12-11-9-11-9--11-9--9-----|
999999------------121212121212------------------------12----12-12-11|
--------------------------------------------------------------------|
--------------------------------------------------------------------|
R
-----------------------------------------------------------|
-----------------------------------------------------------|
---------------------------7-------------------------------|
------999999-------------------10-9-7-9-7----9-7----7------|
777777------101010101010------------------10-----10---10-9-|
-----------------------------------------------------------|

0:22
         _               _
L       / \             / \                _                
-------5-8-5-----------5-8-5--------------/ \-------------------------|
------7-----7-4-------7-----7------------8-7-8--------11--------13----|
---4-7---------5-----5-------5----------7-----9------12-12-----14-14--|
--5-------------7-4-7---------7-4-7----9------------13---13---15---15-|
-7-----------------------------------10------------14-----14-16-----16|
----------------------------------------------------------------------|
         _             _
R       / \           / \                 _             
-------2-5-2---------2-5-2---------------/ \-----------------------|
------3-----3-------3-----3-------------8-7-8-------8--------10----|
-----4-------4-----2-------2-----------7-----9-----9-9------11-11--|
--2-5---------5-4-4---------4---4-----9----------10---10---12---12-|
-3---------------5------------5-----10----------11-----11-13-----13|
-------------------------------------------------------------------|

0:28
L
----------------|
----------------|
-12-11-9-11-9---|
--------------12|
----------------|
----------------|
R
--------------|
--------------|
--------------|
-10-9-7-9-7---|
------------10|
--------------|

0:29
L
--------------------------------------------------------------------|
---------------------------------10---------------------------------|
------111111111111------------------------12-11-9-11-9--11-9--9-----|
999999------------121212121212------------------------12----12-12-11|
--------------------------------------------------------------------|
--------------------------------------------------------------------|
R
-----------------------------------------------------------|
-----------------------------------------------------------|
--------------------------7--------------------------------|
------999999-------------------10-9-7-9-7----9-7----7------|
777777------101010101010------------------10-----10---10-9-|
-----------------------------------------------------------|

0:32
L
------------------------------------------------------|
--------------------------8------------------------P--|
------999999------------------11-9-7-9-7----9-7----H--|
777777------111111111111-----------------11-----11-7--|
------------------------------------------------------|
------------------------------------------------------|
R
------------------------------------------------|
------------------------------------------------|
---------------------5-------------------P------|
------777777-------------9-7-5-7-5---7-5-H------|
555555------999999-----------------9-----5------|
------------------------------------------------|

0:35
L
--------------------------------------------------------------------|
--------------------------------10----------------------------------|
------111111111111------------------------12-11-9-11-9--11-9--9-----|
999999------------121212121212------------------------12----12-12-11|
--------------------------------------------------------------------|
--------------------------------------------------------------------|
R
-----------------------------------------------------------|
-----------------------------------------------------------|
--------------------------7--------------------------------|
------999999-------------------10-9-7-9-7----9-7----7------|
777777------101010101010------------------10-----10---10-9-|
-----------------------------------------------------------|

0:37
         _               _
L       / \             / \                _                
-------5-8-5-----------5-8-5--------------/ \-------------------------|
------7-----7-4-------7-----7------------8-7-8--------11--------13----|
---4-7---------5-----5-------5----------7-----9------12-12-----14-14--|
--5-------------7-4-7---------7-4-7----9------------13---13---15---15-|
-7-----------------------------------10------------14-----14-16-----16|
----------------------------------------------------------------------|
         _             _
R       / \           / \                 _             
-------2-5-2---------2-5-2---------------/ \-----------------------|
------3-----3-------3-----3-------------8-7-8-------8--------10----|
-----4-------4-----2-------2-----------7-----9-----9-9------11-11--|
--2-5---------5-4-4---------4---4-----9----------10---10---12---12-|
-3---------------5------------5-----10----------11-----11-13-----13|
-------------------------------------------------------------------|

0:43
L
---------------------------------------------------------------|
---------------------------------------------------------------|
---------------------------------------------------------------|
------------------------------5555004400445577555500440044557--|
---------------------------------------------------------------|
---------------------------------------------------------------|
R
70005000700080007000500070008-----------^---------------^------|
------------------------------8--0-7-0-7-8-10-8--0-7-0-7-8-10--|
---------------------------------------------------------------|
---------------------------------------------------------------|
---------------------------------------------------------------|
---------------------------------------------------------------|

0:47
L
---------------------------------------------------------------|
---------------------------------------------------------------|
----------------_----------------------------------------------|
5--4-----------/ \--2-4-5-4-2-55550044004455775555004400445577-|
-*--*-7-*-5-*-2-4-5--------------------------------------------|
-0--0---0---0--------------------------------------------------|
R
70005000700080007000500070008-----------^---------------^------|
------------------------------8--0-7-0-7-8-10-8--0-7-0-7-8-10--|
---------------------------------------------------------------|
---------------------------------------------------------------|
---------------------------------------------------------------|
---------------------------------------------------------------|

0:51
L
-----------------------------------------------------------------|
-----------------------------------------------------------------|
----------------------------------5555554444555577-5--5-5-7--7-7-|
-55550044004455775555004400445577------------------X--X-X-X--X-X-|
---------------------------------------------------3--3-3-5--5-5-|
-----------------------------------------------------------------|
                                                        _
R                                                      / \ 
----------^---------------^----------------^-----10-8-7-8-7------^--|
8--0-7-0-7-8-10-8--0-7-0-7-8-10--8--0-7-0-7-8-10-----------10-8-7-8-|
--------------------------------------------------------------------|
--------------------------------------------------------------------|
--------------------------------------------------------------------|
--------------------------------------------------------------------|

0:56
L
---------------------------------------------------------------|
---------------------------------------------------------------|
----------------_----------------------------------------------|
5--4-----------/ \--2-4-5-4-2-55550044004455775555004400445577-|
-*--*-7-*-5-*-2-4-5--------------------------------------------|
-0--0---0---0--------------------------------------------------|
R
70005000700080007000500070008-----------^---------------^------|
------------------------------8--0-7-0-7-8-10-8--0-7-0-7-8-10--|
---------------------------------------------------------------|
---------------------------------------------------------------|
---------------------------------------------------------------|
---------------------------------------------------------------|

1:00
L
---------------------------------------------------------------|
---------------------------------------------------------------|
----------------_----------------------------------------------|
5--4-----------/ \--2-4-5-4-2-55550044004455775555004400445577-|
-*--*-7-*-5-*-2-4-5--------------------------------------------|
-0--0---0---0--------------------------------------------------|
R
70005000700080007000500070008-----------^---------------^------|
------------------------------8--0-7-0-7-8-10-8--0-7-0-7-8-10--|
---------------------------------------------------------------|
---------------------------------------------------------------|
---------------------------------------------------------------|
---------------------------------------------------------------|

1:03
L
-----------------------------------------------------------------|
-----------------------------------------------------------------|
----------------------------------5555554444555577-5--5-5-7--7-7-|
-55550044004455775555004400445577------------------X--X-X-X--X-X-|
---------------------------------------------------3--3-3-5--5-5-|
-----------------------------------------------------------------|
                                                        _
                                                       / \ 
----------^---------------^----------------^-----10-8-7-8-7---------|
8--0-7-0-7-8-10-8--0-7-0-7-8-10--8--0-7-0-7-8-10-----------10-8-7---|
--------------------------------------------------------------------|
--------------------------------------------------------------------|
--------------------------------------------------------------------|
--------------------------------------------------------------------|

1:08
L
-------------------|
-------------------|
5--5-5-7--7-7-9-9--|
X--X-X-X--X-X-X-X--|
3--3-3-5--5-5/7-7-\|
------------------\|
R       _
       / \
-10-8-7-8-7------^--------|
-----------10-8-7-8-------|
--------------------9-----|
--------------------------|
-----------------------\--|
-----------------------\--|

1:10
L
-----------------------------------------------------------------|
-----------------------------------------------------------------|
-----------------------------------------------------------------|
*-*-----------------------------*-*------------------------------|
2-2-----------------------------1-1------------------------------|
2-2-----------------------------1-1------------------------------|

R
------------------------------------------------------------------|
----------------------------------------------------------_-------|
----------------5---4--------^---------------------------/ \------|
----5---4---5-----------5---4-5-----2---1---------------1-2-1--^--|
*-*---*---*---*---*---*---*-----*-*---*---*-3-*-2-*-3-*-------3-2-|
2-2---2---2---2---2---2---2-----1-1---1---1---1---1---1-----------|

1:14
L
-------------------------------------------------------------|
-------------------------------------------------------------|
------------------------------------------_--------------_---|
*-*--------------------------------------/ \------------/ \--|
2-2-----------------------------*-*-7-*-6-7-6---*--7-*-6-7-6-|
2-2-----------------------------5-5---5-------4-4----4-------|
R
-------------------------------------------------------------|
-------------------------------------------------------------|
----------------5---4--------^------------_--------------_---|
----5---4---5-----------5---4-5----------/ \------------/ \--|
*-*---*---*---*---*---*---*-----*-*-7-*-6-7-6---*--7-*-6-7-6-|
2-2---2---2---2---2---2---2-----5-5---5-------4-4----4-------|

1:18
B
------------------------------------------------------------------|
----------------------------------------------------------_-------|
----------------5---4--------^---------------------------/ \------|
----5---4---5-----------5---4-5-----2---1---------------1-2-1--^--|
*-*---*---*---*---*---*---*-----*-*---*---*-3-*-2-*-3-*-------3-2-|
2-2---2---2---2---2---2---2-----1-1---1---1---1---1---1-----------|

1:22
-------------------------------------------------------------|
-------------------------------------------------------------|
----------------5---4--------^------------_--------------_---|
----5---4---5-----------5---4-5----------/ \------------/ \--|
*-*---*---*---*---*---*---*-----*-*-7-*-6-7-6---*--7-*-6-7-6-|
2-2---2---2---2---2---2---2-----5-5---5-------4-4----4-------|

1:26
------------------------------------------------------------------|
----------------------------------------------------------_-------|
----------------5---4--------^---------------------------/ \------|
----5---4---5-----------5---4-5-----2---1---------------1-2-1--^--|
*-*---*---*---*---*---*---*-----*-*---*---*-3-*-2-*-3-*-------3-2-|
2-2---2---2---2---2---2---2-----1-1---1---1---1---1---1-----------|

1:30
-------------------------------------------------------------|
-------------------------------------------------------------|
----------------5---4--------^------------_--------------_---|
----5---4---5-----------5---4-5----------/ \------------/ \--|
*-*---*---*---*---*---*---*-----*-*-7-*-6-7-6---*--7-*-6-7-6-|
2-2---2---2---2---2---2---2-----5-5---5-------4-4----4-------|

1:34
L
------------------------------------|
------------------------------------|
--------------------------^-----^---|
----^-----^--------------4-5---4-5--|
-*-6-7-*-6-7-2---------3-----5------|
-5-----4----------------------------|
R
------------------------------------|
------------------------------------|
----^-----^----------------^-----^--|
---4-5---4-5--------------7-9---7-9-|
-*-----*-----6----------7-----9-----|
-5-----4----------------------------|

1:37
B
-----------------------------------------------------------------|
-----------------------------------------------------------------|
----------------12-11-9-11-9-------------------------------------|
-----------------------------12-10101010101010101010101010101010-|
7777777777777777-------------------------------------------------|
-----------------------------------------------------------------|

1:40
-----------------------------------------------------------------|
13-12-10-12-10---------------------------------------------------|
--------------12---------------------------------12-11-9-11-9----|
-----------------12121212121212121212121212121212-------------12-|
-----------------------------------------------------------------|
-----------------------------------------------------------------|

1:43
------------------_-------------------|
-----------------/ \------------------|
----------------8-9-8----8------------|
9999999999999999------10---10-9-7-----|
----------------------------------10--|
--------------------------------------|

1:46
-----------------------------------------------------------------|
-----------------------------------------------------------------|
----------------12-11-9-11-9-------------------------------------|
-----------------------------12-10101010101010101010101010101010-|
7777777777777777-------------------------------------------------|
-----------------------------------------------------------------|

1:48
-----------------------------------------------------------------|
13-12-10-12-10---------------------------------------------------|
--------------12---------------------------------12-11-9-11-9----|
-----------------12121212121212121212121212121212-------------12-|
-----------------------------------------------------------------|
-----------------------------------------------------------------|

1:51
L
------------------_------------------|
-----------------/ \-----------------|
----------------8-9-8----8-----------|
9999999999999999------10---10-9-7----|
----------------------------------10-|
-------------------------------------|
R                 _
-----------------/ \---------------|
----------------7-8-7---7----------|
----------------------9---9-8------|
9999999999999999--------------10-9-|
-----------------------------------|
-----------------------------------|

1:54
L
-----------------------------------------------------------------|
-----------------------------------------------------------------|
----------------12-11-9-11-9-------------------------------------|
-----------------------------12-10101010101010101010101010101010-|
7777777777777777-------------------------------------------------|
-----------------------------------------------------------------|
R
-----------------------------------------------------------------|
--------------------------------12-10--10--------------///--///--|
-------------------------------------12--12-11-///--///-11---12--|
-----------------------------------------------12---14-----------|
10101010101010101010101010101010---------------------------------|
-----------------------------------------------------------------|

1:57
L
-----------------------------------------------------------------|
13-12-10-12-10---------------------------------------------------|
--------------12---------------------------------12-11-9-11-9----|
-----------------12121212121212121212121212121212-------------12-|
-----------------------------------------------------------------|
-----------------------------------------------------------------|
R
12-10----10--------///----///-----///--------///----///-----///-----|
------13----13-12--13-----12------10----///--13-----12------10--///-|
----------------------------------------12----------------------12--|
--------------------------------------------------------------------|
--------------------------------------------------------------------|
--------------------------------------------------------------------|

2:00
L
------------------_-------------------|
-----------------/ \------------------|
----------------8-9-8----8------------|
9999999999999999------10---10-9-7-----|
----------------------------------10--|
--------------------------------------|
R                   _
*-*-10-*-*-10--^---/ \----------------|
7-8----7-8----7-8-7-8-7--7------------|
-----------------------9---9-8--------|
------------------------------10-9----|
--------------------------------------|
--------------------------------------|

2:02
L
-----------------------------------------------------------------|
-----------------------------------------------------------------|
----------------12-11-9-11-9-------------------------------------|
-----------------------------12-10101010101010101010101010101010-|
7777777777777777-------------------------------------------------|
-----------------------------------------------------------------|
R
-----------------------------------------------------------------|
--------------------------------12-10--10--------------///--///--|
-------------------------------------12--12-11-///--///-11---12--|
-----------------------------------------------12---14-----------|
10101010101010101010101010101010---------------------------------|
-----------------------------------------------------------------|

2:05
L
-----------------------------------------------------------------|
13-12-10-12-10---------------------------------------------------|
--------------12---------------------------------12-11-9-11-9----|
-----------------12121212121212121212121212121212-------------12-|
-----------------------------------------------------------------|
-----------------------------------------------------------------|
R
12-10----10--------///----///-----///--------///----///-----///-----|
------13----13-12--13-----12------10----///--13-----12------10--///-|
----------------------------------------12----------------------12--|
--------------------------------------------------------------------|
--------------------------------------------------------------------|
--------------------------------------------------------------------|

2:08
B
-------------|
-------------|
-------------|
-5-5----7-7--|
-3-3----5-5--|
-------------|

2:10
L
------------_---------------------------------------------------|
-----------/ \---------_----------^-------^--------------H------|
----------4-5-7-------/ \--------5-0--^--5-0--^----------5-H-H--|
-*--***--*-----4-----4-5-7-4---------4-0-----4-0--*--***---4-5--|
-2--222--5----------------------------------------2--222--------|
-2--222--5----------------------------------------2--222--------|
R
------------_---------------------------------------------------|
-----------/ \---------_----------^-------^--------------H------|
----------4-5-7-------/ \--------7-0--^--7-0--^----------4-2-H--|
-*--***--*-----4-----4-5-7-----------5-0-----5-0--*--***-----4--|
-2--222--5-----------------5----------------------2--222--------|
-2--222--5----------------------------------------2--222--------|

2:16
L                                       __
------------_--------------------------/  \---------------------|
-----------/ \---------_--------------8-12-8-------------H------|
----------4-5-7-------/ \-------^---9--------9-----------5-H-H--|
-*--***--*-----4-----5-7-9-----9-10-----------10/14--***---4-5--|
-2--222--5-------------------------------------------222--------|
-2--222--5-------------------------------------------222--------|
R                                      __
                                      /  \
------------_------------------------7-10-7--------------------|
-----------/ \---------_--------^--8-------8-------------H-----|
----------4-5-7-------/ \------6-9----------9/12---------4-2-H-|
-*--***--*-----4-----5-7-9---------------------------***-----4-|
-2--222--5-------------------------------------------222-------|
-2--222--5-------------------------------------------222-------|

2:22
L
---------------------------------|
---------------------------------|
----------------------****-------|
-5--555---5--5-5---4--4444-4-----|
-3--333---3--3-3---2--2222-5-----|
---------------------------------|
R
---------------------------------|
------------------------------P--|
----------------------****----H--|
-5--555---5--5-5---4--4444-4--5~~|
-3--333---3--3-3---2--2222-5-----|
---------------------------------|

2:28

GT1
---------------------------------------------------------------------|
---------------------------------------------------------------------|
-----///------///--///-///-////////-------///-///--------------------|
///---9--///---9---7---10--9--7--9-///-///-9---7-///-////12-10-9-10-9|
-7--------10-----------------------10---7---------10--9--------------|
---------------------------------------------------------------------|
GT2
--------------------------------------------------------------------|
--------------------------------------------------------------------|
------------------------------------------///-///-------------------|
---------------------------------------///-5---4--///---7-5-4-5-4---|
----------------------------------------3---------5-----------------|
--------------------------------------------------------------------|
RYTHM
---------------------------------------------------------------------|
---------------------------------------------------------------------|
-------------------------------------------*-***-*--*-*--*--***-*----|
-*--***-----*---*-*----*--***------*--*-*--5-555-5--5-5--4--444-4-4--|
-2--222-----2---2-2----2--222------2--2-2--3-333-3--3-3--2--222-2-5--|
-2--222-----2---2-2----2--222------2--2-2----------------------------|

2:40
L
-----------------------------------|
-----------------------------------|
----------------------9-8----------|
-*--***-----------5-4-X-X----------|
-2--222-------3-2-----7\6----\-----|
-2--222---2-1----------------\-----|
R
-----------------------------------|
-----------------------------------|
----------------------911----------|
-*--***-----------5-7-X-X----------|
-2--222-------3-6-----7/9----\-----|
-2--222---5-4----------------\-----|

2:46
B
------------------------------------------------------------------|
----------------------------------------------------------_-------|
----------------5---4--------^---------------------------/ \------|
----5---4---5-----------5---4-5-----2---1---------------1-2-1--^--|
*-*---*---*---*---*---*---*-----*-*---*---*-3-*-2-*-3-*-------3-2-|
2-2---2---2---2---2---2---2-----1-1---1---1---1---1---1-----------|

2:50
-------------------------------------------------------------|
-------------------------------------------------------------|
----------------5---4--------^------------_--------------_---|
----5---4---5-----------5---4-5----------/ \------------/ \--|
*-*---*---*---*---*---*---*-----*-*-7-*-6-7-6---*--7-*-6-7-6-|
2-2---2---2---2---2---2---2-----5-5---5-------4-4----4-------|

2:54
-------------------------------------------------------------------|
-------------------------------------------------------------------|
-----------------5-4-2---4-2-----------------------_---------------|
-----5---4---5---------5-----5-4-----2---1--------/ \--------------|
-*-*---*---*---*-----------------*-*---*---*-3-*-2-3-2-0-2-0-------|
-2-2---2---2---2-----------------1-1---1---1---1-------------5-4-5-|

2:58
-------------------------------------------------------------------|
-------------------------------------------------------------------|
-----------------5-4-2---4-2------------------^-----------^--------|
-----5---4---5---------5-----5-4----------^--4-5-----4---5-4--^----|
-*-*---*---*---*-----------------*-*-7-*-6-7-----*-*---*-----7-6---|
-2-2---2---2---2-----------------5-5---5---------4-4---4-----------|

3:02
-------------------------------------------------------------------|
-------------------------------------------------------------------|
-----------------5-4-2---4-2-----------------------_---------------|
-----5---4---5---------5-----5-4-----2---1--------/ \--------------|
-*-*---*---*---*-----------------*-*---*---*-3-*-2-3-2-0-2-0-------|
-2-2---2---2---2-----------------1-1---1---1---1-------------5-4-5-|

3:06
-------------------------------------------------------------------|
-------------------------------------------------------------------|
-----------------5-4-2---4-2------------------^-----------^--------|
-----5---4---5---------5-----5-4----------^--4-5-----4---5-4--^----|
-*-*---*---*---*-----------------*-*-7-*-6-7-----*-*---*-----7-6---|
-2-2---2---2---2-----------------5-5---5---------4-4---4-----------|

3:10
L
------------------------------------|
------------------------------------|
--------------------------^-----^---|
----^-----^--------------4-5---4-5--|
-*-6-7-*-6-7-2---------3-----5------|
-5-----4----------------------------|
R
------------------------------------|
------------------------------------|
----^-----^----------------^-----^--|
---4-5---4-5--------------7-9---7-9-|
-*-----*-----6----------7-----9-----|
-5-----4----------------------------|

3:14
L
---------------------------------------------------------------|
---------------------------------------------------------------|
---------------------------------------------------------------|
------------------------------5555004400445577555500440044557--|
---------------------------------------------------------------|
---------------------------------------------------------------|
R
70005000700080007000500070008-----------^---------------^------|
------------------------------8--0-7-0-7-8-10-8--0-7-0-7-8-10--|
---------------------------------------------------------------|
---------------------------------------------------------------|
---------------------------------------------------------------|
---------------------------------------------------------------|

3:17
L
---------------------------------------------------------------|
---------------------------------------------------------------|
----------------_----------------------------------------------|
5--4-----------/ \--2-4-5-4-55550044004455775555004400445577---|
-*--*-7-*-5-*-2-4-5--------------------------------------------|
-0--0---0---0--------------------------------------------------|
R
70005000700080007000500070008-----------^---------------^------|
------------------------------8--0-7-0-7-8-10-8--0-7-0-7-8-10--|
---------------------------------------------------------------|
---------------------------------------------------------------|
---------------------------------------------------------------|
---------------------------------------------------------------|

3:21
L
-----------------------------------------------------------------|
-----------------------------------------------------------------|
----------------------------------5555554444555577-5--5-5-7--7-7-|
-55550044004455775555004400445577------------------X--X-X-X--X-X-|
---------------------------------------------------3--3-3-5--5-5-|
-----------------------------------------------------------------|
R                                                       _
                                                       / \ 
----------^---------------^----------------^-----10-8-7-8-7------^--|
8--0-7-0-7-8-10-8--0-7-0-7-8-10--8--0-7-0-7-8-10-----------10-8-7-8-|
--------------------------------------------------------------------|
--------------------------------------------------------------------|
--------------------------------------------------------------------|
--------------------------------------------------------------------|

3:25
L
---------------------------------------------------------------|
---------------------------------------------------------------|
----------------_----------------------------------------------|
5--4-----------/ \--2-4-5-4-55550044004455775555004400445577---|
-*--*-7-*-5-*-2-4-5--------------------------------------------|
-0--0---0---0--------------------------------------------------|
R
70005000700080007000500070008-----------^---------------^------|
------------------------------8--0-7-0-7-8-10-8--0-7-0-7-8-10--|
---------------------------------------------------------------|
---------------------------------------------------------------|
---------------------------------------------------------------|
---------------------------------------------------------------|

3:30
L
---------------------------------------------------------------|
---------------------------------------------------------------|
----------------_----------------------------------------------|
5--4-----------/ \--2-4-5-4-55550044004455775555004400445577---|
-*--*-7-*-5-*-2-4-5--------------------------------------------|
-0--0---0---0--------------------------------------------------|
R
70005000700080007000500070008-----------^---------------^------|
------------------------------8--0-7-0-7-8-10-8--0-7-0-7-8-10--|
---------------------------------------------------------------|
---------------------------------------------------------------|
---------------------------------------------------------------|
---------------------------------------------------------------|

3:34
L
-----------------------------------------------------------------|
-----------------------------------------------------------------|
----------------------------------5555554444555577-5--5-5-7--7-7-|
-55550044004455775555004400445577------------------X--X-X-X--X-X-|
---------------------------------------------------3--3-3-5--5-5-|
-----------------------------------------------------------------|
 R                                                      _
                                                       / \ 
----------^---------------^----------------^-----10-8-7-8-7---------|
8--0-7-0-7-8-10-8--0-7-0-7-8-10--8--0-7-0-7-8-10-----------10-8-7---|
--------------------------------------------------------------------|
--------------------------------------------------------------------|
--------------------------------------------------------------------|
--------------------------------------------------------------------|
3:38
L                ^ ^ ^ ^ ^ ^ ^ ^
----------------7050708070507080--^-^-^-^--^-^-^-^--|
---------------------------------807080100807080100-|
5--5-5-7--7-7-9-------------------------------------|
X--X-X-X--X-X-X-------------------------------------|
3--3-3-5--5-5/7-------------------------------------|
----------------------------------------------------|
R       _
       / \             ^ ^  ^  ^  ^  ^ ^  ^
-10-8-7-8-7------^----1008010012010080100120-^--^--^--^--^--^--^--^-|
-----------10-8-7-8-------------------------120100120130120100120130|
--------------------9-----------------------------------------------|
--------------------------------------------------------------------|
--------------------------------------------------------------------|
--------------------------------------------------------------------|

3:43
L
--70005000700080007000500070008000-----------------------|
-----------------------------------80007000800010/12-----|
-----------------------------------------------------9---|
---------------------------------------------------------|
---------------------------------------------------------|
---------------------------------------------------------|
R
10000800010000120001000080001000012000-------------------------|
--------------------------------------12000100001200013/15-----|
-----------------------------------------------------------12--|
---------------------------------------------------------------|
---------------------------------------------------------------|
---------------------------------------------------------------|

3:47
L
-----------------------------------------------------|
///-----------------///-------///--------///---------|
-9-------------------11--------12---------11--///----|
-----------------------------------------------12----|
-----------------------------------------------------|
-----------------------------------------------------|
R
---------------------------------------------------------|
---------------------------------------------------------|
---------------------------------------------------------|
-9------9------9------7-9-10-9-55-0-9-55-0-9-55-0-9-10-12|
---10-7---10-7---10-7------------------------------------|
---------------------------------------------------------|

3:50
L
--------------------------------///--///--///-///-///----------|
-///-------///-----///----------13---12----10-12--10-///-------|
-14--------12------11-----///------------------------12--------|
---------------------------12----------------------------------|
---------------------------------------------------------------|
---------------------------------------------------------------|
R
-----------------------------------------------------------------|
-----------------------------------------------------------------|
---------------------------------11---11-14-12-11----------------|
10-77-0-10-77-0-10-77-0-10-12-14---12------------14-12-10--------|
----------------------------------------------------------14-10-7|
-----------------------------------------------------------------|

3:53
L
-----------------------------------------------------|
///-----------------///-------///--------///---------|
-9-------------------11--------12---------11--///----|
-----------------------------------------------12----|
-----------------------------------------------------|
-----------------------------------------------------|
R
---------------------------------------------------------|
---------------------------------------------------------|
---------------------------------------------------------|
-9------9------9------7-9-10-9-55-0-9-55-0-9-55-0-9-10-12|
---10-7---10-7---10-7------------------------------------|
---------------------------------------------------------|

3:56
L
--------------------------------///--///--///-///-///----------|
-///-------///-----///----------13---12----10-12--10-///-------|
-14--------12------11-----///------------------------12--------|
---------------------------12----------------------------------|
---------------------------------------------------------------|
---------------------------------------------------------------|
R
----------------------------------------------------------|
-------------------------------------------------_--------|
------------------------------------------------/ \-------|
10-77-0-10-77-0-10-77-0-10-12-14-9-55-0-9-55-0-4-6-4------|
-----------------------------------------------------5----|
----------------------------------------------------------|


3:59
L
------///-///-///-------///-///-///-----///-///-///------------|
///---12--10--12--///---12--10--12-///---12--10--12------------|
-9----------------9-----------------8-----------------9---8----|
---------------------------------------------------------------|
---------------------------------------------------------------|
---------------------------------------------------------------|
R
-------------------------------------------------------------|
-------------------------------------------------------------|
----///-//////----///-//////--///-//////---------------------|
-///-5--4--5---///-5--4--5-///-5--4--5----5------------------|
-3-------------3------------2-------------6------------------|
-------------------------------------------------------------|

4:05
B
--------------------------------------------------------------------|
--------------------------------------------------------------------|
--------------------------------------------------------------------|
-*****--------*****--*****--*****---*****------*****--*****---*****-|
-22222--------22222--22222--22222---11111------11111--11111---11111-|
-22222--------22222--22222--22222---11111------11111--11111---11111-|

4:14
L
----------------------------------------------------------------|
-------------------------------------------------------P--------|
-------------------------------------------------------H--------|
----------------------------777777-999999-101010101010-7--------|
-777777-999999-101010101010-------------------------------------|
----------------------------------------------------------------|
R
-------------------------------------|
-------------------------------------|
-------------------------------------|
-------------------------------------|
101010101010121212121212141414141414-|
-------------------------------------|

---------------------------------------|
---------------------------------------|
-------------------------------------PH|
101010101010121212121212141414141414-10|
---------------------------------------|
---------------------------------------|

4:17
L
-----------------------------------------------------|
///-----------------///-------///--------///---------|
-9-------------------11--------12---------11--///----|
-----------------------------------------------12----|
-----------------------------------------------------|
-----------------------------------------------------|
R
---------------------------------------------------------|
---------------------------------------------------------|
---------------------------------------------------------|
-9------9------9------7-9-10-9-55-0-9-55-0-9-55-0-9-10-12|
---10-7---10-7---10-7------------------------------------|
---------------------------------------------------------|

4:20
L
--------------------------------///--///--///-///-///----------|
-///-------///-----///----------13---12----10-12--10-///-------|
-14--------12------11-----///------------------------12--------|
---------------------------12----------------------------------|
---------------------------------------------------------------|
---------------------------------------------------------------|
R
------------------------------------------------------------------|
------------------------------------------------------------------|
---------------------------------11---11-14-12-11-----------------|
10-77-0-10-77-0-10-77-0-10-12-14---12------------14-12-10---------|
----------------------------------------------------------14-10-7-|
------------------------------------------------------------------|

4:23
L
-----------------------------------------------------|
///-----------------///-------///--------///---------|
-9-------------------11--------12---------11--///----|
-----------------------------------------------12----|
-----------------------------------------------------|
-----------------------------------------------------|
R
---------------------------------------------------------|
---------------------------------------------------------|
---------------------------------------------------------|
-9------9------9------7-9-10-9-55-0-9-55-0-9-55-0-9-10-12|
---10-7---10-7---10-7------------------------------------|
---------------------------------------------------------|

4:26
L
--------------------------------///--///--///-///-///----------|
-///-------///-----///----------13---12----10-12--10-///-------|
-14--------12------11-----///------------------------12--------|
---------------------------12----------------------------------|
---------------------------------------------------------------|
---------------------------------------------------------------|
R
---------------------------------------------------------|
-------------------------------------------------_-------|
------------------------------------------------/ \------|
10-77-0-10-77-0-10-77-0-10-12-14-9-55-0-9-55-0-4-6-4-----|
-----------------------------------------------------5---|
---------------------------------------------------------|

4:29
L
------///-///-///-------///-///-///-----///-///-///------------------|
///---12--10--12--///---12--10--12-///---12--10--12------------------|
-9----------------9-----------------8-----------------9-7-9----------|
---------------------------------------------------10-------7-10-9-10|
---------------------------------------------------------------------|
---------------------------------------------------------------------|
R
-------------------------------------------------------------|
-------------------------------------------------------------|
----///-//////----///-//////--///-//////---------------------|
-///-5--4--5---///-5--4--5-///-5--4--5-----------------------|
-3-------------3------------2-------------0-3-2-3---2-0-2----|
--------------------------------------------------3----------|

4:35
B
------------------------------------------------------------------|
-----------_-------------------------------_----------------------|
----------/ \--------------_--------------/ \----5-4-2---4-2------|
-----5---4-5-4---2-2------/ \----*-*-5-*-4-5-4-*-------5-----5-4--|
-*-*---*-------*-----5-3-2-3-5-2-3-3---3-------3------------------|
-2-2---2-------2--------------------------------------------------|

4:40
------------------------------------------------------------------|
-----------_-------------------------------_----------------------|
----------/ \--------------_--------------/ \----/7-5-4---5-4-----|
-----5---4-5-4---2-2------/ \----*-*-5-*-4-5-4-*--------7-----5-4-|
-*-*---*-------*-----5-3-2-3-5-2-3-3---3-------3------------------|
-2-2---2-------2--------------------------------------------------|

4:44
-----------------------------------------------------------------------|
-----------_-------------------------------_---------------------------|
----------/ \--------------_--------------/ \------------------5-4-2---|
-----5---4-5-4---2-2------/ \----*-*-5-*-4-5-4-*---5-4---5-4-2-------5-|
-*-*---*-------*-----5-3-2-3-5-2-0-0---0-------0-3-----3---------------|
-2-2---2-------2-------------------------------------------------------|

4:49
-----------------------------------------------------------------------|
-----------_-------------------------------_---------------------------|
----------/ \--------------_--------------/ \------------------5-4-2---|
-----5---4-5-4---2-2------/ \----*-*-5-*-4-5-4-*---5-4---5-4-2-------5-|
-*-*---*-------*-----5-3-2-3-5-2-0-0---0-------0-3-----3---------------|
-2-2---2-------2-------------------------------------------------------|

4:54
L
------------------------------------------------------------------|
-----------_-------------------------------_----------------------|
----------/ \--------------_--------------/ \----5-4-2---4-2------|
-----5---4-5-4---2-2------/ \----*-*-5-*-4-5-4-*-------5-----5-4--|
-*-*---*-------*-----5-3-2-3-5-2-3-3---3-------3------------------|
-2-2---2-------2--------------------------------------------------|
R
-----------_--------------------------------_---------------------|
----------/ \--------------_---------------/ \----5-3-----3-------|
-----4---2-4-2------------/ \---------4---2-4-2-------5-4---5-4-2-|
-----------------5-5-4-2-0-2-4---*-*----*-------*-----------------|
-*-*---*-------*---------------5-3-3----3-------3-----------------|
-2-2---2-------2--------------------------------------------------|

4:58
L
------------------------------------------------------------------|
-----------_-------------------------------_----------------------|
----------/ \--------------_--------------/ \----/7-5-4---5-4-----|
-----5---4-5-4---2-2------/ \----*-*-5-*-4-5-4-*--------7-----5-4-|
-*-*---*-------*-----5-3-2-3-5-2-3-3---3-------3------------------|
-2-2---2-------2--------------------------------------------------|

R
-----------_--------------------------------_---------------------|
----------/ \--------------_---------------/ \--------------------|
-----4---2-4-2------------/ \---------4---2-4-2-------------------|
-----------------5-5-4-2-0-2-4---*-*----*-------*--P--------------|
-*-*---*-------*---------------5-3-3----3-------3---S-------------|
-2-2---2-------2--------------------------------------\-----------|

5:03
B
----------------------------------------------------------------|
----------------------------------------------------------------|
--------------------------------*****---*-*-*-------------------|
*****---*-*-*----*****---*-*-*--55555---5-5-5---*****---*-*-*---|
22222---2-2-2----22222---2-2-2--33333---3-3-3---11111---1-1-1---|
22222---2-2-2----22222---2-2-2------------------11111---1-1-1---|

5:12
---------------------------------------------------------------|
---------------------------------------------------------------|
---------------------------------------------------------------|
---------------------------------------------------------------|
-***-***-***-***----***-***-***-***----***-***---***-***-*--*--|
-222-222-222-222----222-222-222-222----111-111---111-111-1--1--|

5:22
B
------------------------------------|
------------------------------------|
------------------------------------|
------------------------------------|
***-***-***-***----***-***-***-***--|
222-222-222-222----222-222-222-222--|

5:30
L
---------------------------------------------------------------|
---------------------------------------------------------------|
---------------------------------------------------------------|
-***---------***-***---***--------***--------***-***---***-----|
-111---------111-111---111--------111--------111-111---111-----|
-111---------111-111---111--------111--------111-111---111-----|

R TAPPED
------------------------------------------------------------------------|
------------------------------------------------------------------------|
------------------------------------------------------------------------|
------------------------------------------------------------------------|
-107-107-107-96-96-96-107-107-107-96-96-96-107-107-107-96-96-96-96-96-96|
------------------------------------------------------------------------|

------------------------------------------------------------------------|
------------------------------------------------------------------------|
------------------------------------------------------------------------|
------------------------------------------------------------------------|
-107-107-107-96-96-96-107-107-107-96-96-96-107-107-107-96-96-96-96-96-96|
------------------------------------------------------------------------|

5:37
B
------------------------------------|
------------------------------------|
------------------------------------|
------------------------------------|
***-***-***-***----***-***-***-***--|
222-222-222-222----222-222-222-222--|

5:44
L
--------------------------------------------|
--------------------------------------------|
--------------------------------------------|
-***--***--***--***----***--***--***--***---|
-222--222--111--111----222--222--111--111---|
-222--222--111--111----222--222--111--111---|
R
----------------------------------------------------------------|
----------------------------------------------------------------|
----_-------_-------_-------_-------_-------_-------_-------_---|
---/.\-----/ \-----/ \-----/ \-----/ \-----/ \-----/ \-----/ \--|
-14-7-10-14-7-10-14-7-10-14-7-10-14-7-10-14-7-10-14-7-10-14-7-10|
----------------------------------------------------------------|


---------------------------------------------------------------|
---------------------------------------------------------------|
---_-------_-------_-------_-------_-------_-------_-------_---|
--/.\-----/ \-----/ \-----/ \-----/ \-----/ \-----/ \-----/ \--|
15-7-10-15-7-10-15-7-10-15-7-10-15-7-10-15-7-10-15-7-10-15-7-10|
---------------------------------------------------------------|

----------------------------------------------------------------|
----------------------------------------------------------------|
----_-------_-------_-------_-------_-------_-------_-------_---|
---/.\-----/ \-----/ \-----/ \-----/ \-----/ \-----/ \-----/ \--|
-14-7-10-14-7-10-14-7-10-14-7-10-14-7-10-14-7-10-14-7-10-14-7-10|
----------------------------------------------------------------|

--------------------------------------------------------|
--------------------------------------------------------|
---_------_------_------_------_------_------_------_---|
--/.\----/ \----/ \----/ \----/ \----/ \----/ \----/ \--|
13-6-9-13-6-9-13-6-9-13-6-9-13-6-9-13-6-9-13-6-9-13-6-9-|
--------------------------------------------------------|

5:50
------------|
------------|
------------|
***-***-----|
222-111-----|
222-111-----|

            
            
Suggest correction
Creating personal tab
Creating personal tab
You can edit any tab online and save it as your Personal.

You can edit, replace or remove any tab part or add personal notes – all changes will be seen only by you.

Personal tabs can be accessed anytime from any device, even offline.
Learn more »
comments
print report bad tab
guest
You may want to rate the tab now too:
select rating
Wanna post a correction for this tab? Suggest correction