Oops, an error
Loading. Please wait.

From Ruins We Rise tab

version 4
version 4

Whole song

Interactive

184 views 1 this week
no commentswrite comment
1 2 3 4 5
3 more votes to show rating
add to favorites
×
Save as Personal and add changes to this tab that will be seen only by you. Learn more ›
×
You can save this tab as Personal to edit and correct it or add notes. All changes will be seen only by you. Learn more »
launch autoscroll
font size
0
reset
how to read this tab
guitar tuner
edit
Autoscroll
slow
fast
+/-
esc
set tempo
stop
Author
CONDUCTING FROM THE GRAVE
FROM RUINS WE RISE
C-G-C-F-A-D

*=palm mute
///=tremelo picked



TAB INCLUDES WHOLE SONG W/BOTH PARTS

0:00
L
-------------__-------------------------------------------------|
------------/  \--------------/13--11--10-----------------------|
-/14--12--10-12-10-9--10--12--------------12-10----10-9----9-12-|
------------------------------------------------12------10------|
----------------------------------------------------------------|
----------------------------------------------------------------|
R
---------------------------------------------------------------|
---------------------------------------------------------------|
------------_-------------/12--10--9---------------------------|
-----------/ \------------------------10--8------8--7----7--10-|
-/8---7---5-7-5--3--5--7---------------------10-------8--------|
---------------------------------------------------------------|

0:04
L
---------------------------------------------------------------------------|
---------------------------------------------------------------------------|
------------------------------------------------------------------------P--|
--------------------------------------------------------------*--*--*---H--|
-0------------------------------------------5-----------------8--7--5---7~~|
-0------------------------------------------5|----------------8--7--5------|
R
----------------------------------------------------------------------------|
----------------------------------------------------------------------------|
----------------__--------------------__------------------------------------|
---------------/  \------------------/  \---8-*-8-*-12-*-10-*-8-*-8-*-8\7-^-|
8--*-*-8--*-*-8-10-12-8--*-*-8--*-*-8-10-12--10--10---10---10--10--10----8-7|
--1212---1212-----------1212---1212-----------------------------------------|


0:08
L
---------------------------------------------------------------|
---------------------------------------------------------------|
-------------------------------------------------------------12|
----------***--------------------8-*-8-*-10-*-10-*-12-*-12-*---|
-0--------0000--------------------10--10---12---12---13---13---|
-0--------0000|------------------------------------------------|
R
--------------------------------------------------------------------------|
--------------------------------------------------------------------------|
-----------------__--------------------__---------------------------------|
----------------/  \------------------/  \---5-*-5-*-7-*-7-*-8--*-8--*-10-|
-8--*-*-8--*-*-8-10-12-8--*-*-8--*-*-8-10-12---7---7---8---8---10---10----|
---1212---1212-----------1212---1212--------------------------------------|

0:12
L
---------------------------------------------------------------------------------|
---------------------------------------------------------------------------------|
---------------__-------------------__-------------------------------------------|
--------------/  \-----------------/  \--12-*-12-*-15-*-14-*-12-*-12-*-12\10---^-|
8--*-*-8--*-*8-10-12-8--*-*-8--*-*8-10-12--13---13---13---13---13---13------12-10|
--1212---1212----------1212---1212-----------------------------------------------|
R
--------------------------------------------------------------------------------|
--------------------------------------------------------------------------------|
----------------__--------------------__----------------------------------------|
---------------/  \------------------/  \---8-*-8-*-12-*-10-*-8-*-8-*-8\7--^----|
8--*-*-8--*-*-8-10-12-8--*-*-8--*-*-8-10-12--10--10---10---10--10--10-----8-7---|
--1212---1212-----------1212---1212---------------------------------------------|

0:17
L
----------------------------------------------------------------------------|
----------------------------------------------------------------------------|
-----------------__--------------------__-----------------------------------|
----------------/  \------------------/  \---8-*-8-*-10-*-10-*-12-*-12-*-14-|
-8--*-*-8--*-*-8-10-12-8--*-*-8--*-*-8-10-12--10--10---12---12---13---13----|
---1212---1212-----------1212---1212----------------------------------------|
R
--------------------------------------------------------------------------|
--------------------------------------------------------------------------|
-----------------__--------------------__---------------------------------|
----------------/  \------------------/  \---5-*-5-*-7-*-7-*-8--*-8--*-10-|
-8--*-*-8--*-*-8-10-12-8--*-*-8--*-*-8-10-12---7---7---8---8---10---10----|
---1212---1212-----------1212---1212--------------------------------------|

0:21
L
-------------------------------------------------------------------------------|
-------------------------------------------------------------------------------|
---------------__------------------__------------------------------------^-----|
--------------/  \----------------/  \--12-*-12-*-15-*-14-*-12-*-12-*12-15--^--|
8--*-*-8--*-*8-10-12-8-*-*-8--*-*8-10-12--13---13---13---13---13---13-----12-15|
--1212---1212---------1212---1212----------------------------------------------|
R
------------------------------------------------------------------------------|
------------------------------------------------------------------------------|
----------------__--------------------__--------------------------------------|
---------------/  \------------------/  \---8-*-8-*-12-*-10-*-8-*-8-*-8\7--^--|
8--*-*-8--*-*-8-10-12-8--*-*-8--*-*-8-10-12--10--10---10---10--10--10-----8-7-|
--1212---1212-----------1212---1212-------------------------------------------|

0:26
L
----------------------------------------------------------------------------|
----------------------------------------------------------------------------|
-----------------__--------------------__-----------------------------------|
----------------/  \------------------/  \---8-*-8-*-10-*-10-*-12-*-12-*-14-|
-8--*-*-8--*-*-8-10-12-8--*-*-8--*-*-8-10-12--10--10---12---12---13---13----|
---1212---1212-----------1212---1212----------------------------------------|
R
--------------------------------------------------------------------------|
--------------------------------------------------------------------------|
-----------------__--------------------__---------------------------------|
----------------/  \------------------/  \---5-*-5-*-7-*-7-*-8--*-8--*-10-|
-8--*-*-8--*-*-8-10-12-8--*-*-8--*-*-8-10-12---7---7---8---8---10---10----|
---1212---1212-----------1212---1212--------------------------------------|

0:29
L             ^
---------10-12-13--------^-----^----|
-------11--------------10-8---8-10--|
---7/10--------------------9--------|
--8-----------------10------10------|
-8----------------10----------------|
------------------------------------|
R
------------------------------------|
------------------------------------|
------------------------------------|
///----------------///---------^----|
------------------------------7-8---|
-8------------------10--------------|

0:32
L           __                            __
-----------/  \--------------------------/  \---------------------------------------|
----------8/13\8------------------------8/13\8-----------------------------------P--|
---------9------9---9------------------9------9---9------------///---///-///-///-H--|
----^--10--------10---10----^-------^-10-------10---10-----^----8----12---10--8--6~-|
**-8-12-----------------12-8-12-**-8-12----------------12-8-12----------------------|
00------------------------------00--------------------------------------------------|
 R         __                             __
----------/  \---------------------------/  \---------------------------------------|
---------5/10\5-------------------------5/10\5--------------------------------------|
--------5------5---5-------------------5------5---5---------------------------------|
----^--7---------7---7---^---------^--7---------7---7----^------------------------P-|
**-5-8----------------8-5-8----**-5-8-----------------8-5-8---///----///--///-///-H-|
00-----------------------------00------------------------------5------8----7---5--3~|

0:39
L
----------------------------------------------------------------------|
-----------------------------------------------------^----------------|
----------------------------------------------------9-7---------------|
-------------------------------------------------------10-8-10-8------|
***-***---------------------------***-***------------------------10/12|
222-222---------------------------222-222-----------------------------|
R
---------------------------------------------------------------------|
----------------**-*-------------------------------------------------|
------------**-*66-3-**-*---*------------------**-*---5-3-2---2------|
--------**-*55-2-----55-2-*-2-*-*---------**-*-55-2---------5---5-2-3|
***-***-44-1--------------4---4-1-***-***-44-1-----------------------|
222-222---------------------------222-222----------------------------|

0:42
L             ^
---------10-12-13---------------^---|
-------11---------------8------8-10-|
---7/10---------------9---9---------|
--8-----------------10------10------|
-8----------------10----------------|
------------------------------------|
R
------------------------------------|
------------------------------------|
------------------------------------|
///----------------///---------^----|
------------------------------7-8---|
-8------------------10--------------|

0:45
L           __                            __
-----------/  \--------------------------/  \---------------------------------------|
----------8/13\8------------------------8/13\8-----------------------------------P--|
---------9------9---9------------------9------9---9------------///---///-///-///-H--|
----^--10--------10---10----^-------^-10-------10---10-----^----8----12---10--8--6~-|
**-8-12-----------------12-8-12-**-8-12----------------12-8-12----------------------|
00------------------------------00--------------------------------------------------|
 R         __                             __
----------/  \---------------------------/  \---------------------------------------|
---------5/10\5-------------------------5/10\5--------------------------------------|
--------5------5---5-------------------5------5---5---------------------------------|
----^--7---------7---7---^---------^--7---------7---7----^------------------------P-|
**-5-8----------------8-5-8----**-5-8-----------------8-5-8---///----///--///-///-H-|
00-----------------------------00------------------------------5------8----7---5--3~|

0:51
L
----------------------------------------------------------------------|
-----------------------------------------------------^----------------|
----------------------------------------------------9-7---------------|
-------------------------------------------------------10-8-10-8---10-|
***-***---------------------------***-***------------------------10---|
222-222---------------------------222-222-----------------------------|
R
---------------------------------------------------------------------|
---------------------------------------------------------------------|
----------------66-3--------------------------------5-3-2---2--------|
------------55-2-----55-2---2------------------55-2-------5---5-2-5--|
***-***-44-1--------------4---4-1-***-***-44-1-----------------------|
222-222---------------------------222-222----------------------------|

0:55
L
-------------__-------------------------------------------------|
------------/  \--------------/13--11--10-----------------------|
-/14--12--10-12-10-9--10--12--------------12-10----10-9----9-12-|
------------------------------------------------12------10------|
----------------------------------------------------------------|
----------------------------------------------------------------|
R
---------------------------------------------------------------|
---------------------------------------------------------------|
------------_-------------/12--10--9---------------------------|
-----------/ \------------------------10--8------8--7----7--10-|
-/8---7---5-7-5--3--5--7---------------------10-------8--------|
---------------------------------------------------------------|

0:59
B
--------------------------------------------------------------------------------|
--------------------------------------------P---P----P----P---P---P---P---------|
----------------__--------------------__----H---H----H----H---H---H---H---P-----|
---------------/  \------------------/  \---8-*-8-*-12-*-10-*-8-*-8-*-8\7-H^----|
8--*-*-8--*-*-8-10-12-8--*-*-8--*-*-8-10-12--10--10---10---10--10--10-----8-7---|
--1212---1212-----------1212---1212---------------------------------------------|

 1:03                                                                 __
L                                                             __     /  \
------------------------------------------------------__-----/  \--10-12-13/17-15-13--|
-----------------------------------------------__----/  \--10-11-13-----------------15|
-------------__-----------------__------__----/  \--9-10-12---------------------------|
------------/  \---------------/  \----/  \--8-10-12----------------------------------|
8-*-*-8-*-*8-10-12-8-*-*-8-*-*8-10-12-8-10-12-----------------------------------------|
-1212--1212---------1212--1212--------------------------------------------------------|
                                                                         __
R                                                                __     /  \
---------------------------------------------------------__-----/  \--13-15-17/201817-|
-------------------------------------------------__-----/  \--13-15-17--------------18|
-------------__-----------------__-------__-----/  \--12-14-15------------------------|
------------/  \---------------/  \-----/  \--12-14-15--------------------------------|
8-*-*-8-*-*8-10-12-8-*-*-8-*-*8-10-12-12-14-15----------------------------------------|
-1212--1212---------1212--1212--------------------------------------------------------|

1:08
L
--------------------------------------------------------------------------------------|
--------------------------------------------------------------------------------------|
-----------------__--------------------__---------------------------------------------|
----------------/  \------------------/  \---12-*-12-*-15-*-14-*-12-*-12-*-12\10---^--|
-8--*-*-8--*-*-8-10-12-8--*-*-8--*-*-8-10-12---13---13---13---13---13---13-------12-10|
---1212---1212-----------1212---1212--------------------------------------------------|
R
--------------------------------------------------------------------------------|
--------------------------------------------------------------------------------|
----------------__--------------------__----------------------------------------|
---------------/  \------------------/  \---8-*-8-*-12-*-10-*-8-*-8-*-8\7--^----|
8--*-*-8--*-*-8-10-12-8--*-*-8--*-*-8-10-12--10--10---10---10--10--10-----8-7---|
--1212---1212-----------1212---1212---------------------------------------------|

1:12
L
----------------------------------------------------------------------------|
----------------------------------------------------------------------------|
-----------------__--------------------__-----------------------------------|
----------------/  \------------------/  \---8-*-8-*-10-*-10-*-12-*-12-*-14-|
-8--*-*-8--*-*-8-10-12-8--*-*-8--*-*-8-10-12--10--10---12---12---13---13----|
---1212---1212-----------1212---1212----------------------------------------|
R
--------------------------------------------------------------------------|
--------------------------------------------------------------------------|
-----------------__--------------------__---------------------------------|
----------------/  \------------------/  \---5-*-5-*-7-*-7-*-8--*-8--*-10-|
-8--*-*-8--*-*-8-10-12-8--*-*-8--*-*-8-10-12---7---7---8---8---10---10----|
---1212---1212-----------1212---1212--------------------------------------|

1:16
L
--------------------------------------------------------------------------------------|
--------------------------------------------------------------------------------------|
-----------------__--------------------__------------------------------------^--------|
----------------/  \------------------/  \---12-*-12-*-15-*-14-*-12-*-12-*-12-15---^--|
-8--*-*-8--*-*-8-10-12-8--*-*-8--*-*-8-10-12---13---13---13---13---13---13-------12-15|
---1212---1212-----------1212---1212--------------------------------------------------|
R
--------------------------------------------------------------------------------|
--------------------------------------------------------------------------------|
----------------__--------------------__----------------------------------------|
---------------/  \------------------/  \---8-*-8-*-12-*-10-*-8-*-8-*-8\7--^----|
8--*-*-8--*-*-8-10-12-8--*-*-8--*-*-8-10-12--10--10---10---10--10--10-----8-7---|
--1212---1212-----------1212---1212---------------------------------------------|

1:21
L
--------------------------------------------------------------------------------------|
--------------------------------------------------------------------------------------|
----------------__------------------_-------------------------------------------------|
---------------/  \----------------/ \-----------------^----------------^-------------|
8--*-*-8--*-*-8-10-12-7-*-*-7-*-*-7-8-10--5-*-*-*-8-6-5-6--4-*-*-*-7-5-4-5--7-8--10-12|
--1212---1212----------1010--1010-----------8-6-5------------7-5-4---------8---10-----|
R
------------------------------------------------------------------------------------|
------------------------------------------------------------------------------------|
--------------__----------------------__----------------------------------12-10-9-10|
-------------/  \--------------------/  \-------------------------------------------|
8-*-*-8-*-*-8-10-12-10-*-*-10-*-*10-12-13-12-*--*--*15-13-12-13-10-*--*--*----------|
-1212--1212-----------1414---1414-----------15-14-12--------------14-12-10----------|
R
------------------|
------------------|
------------------|
-------------8-10-|
----10-12--7------|
-12---------------|

1:27
L
---------------------------------------------------------------------------------|
---------------------------------------------------------------------------------|
***-***-***-----*-*-*--------*-*-*--*-*-*-***-***-***----*-*-*-------*-*-*--*-*-*|
000-000-777***-101010--*-*-*141414-101010-000-000-777***101010-*-*-*141414-101010|
-----------888--------121212-------------------------888------121212-------------|
---------------------------------------------------------------------------------|
R
---------------------------------------------------------------------------------|
---------------------------------------------------------------------------------|
---------------------------------------------------------------------------------|
---------------------------------------------------------------------------------|
***-***------------------------------------***-***------------***-***------------|
000-000------------------------------------000-000------------000-000------------|

1:32
L
---------------------------------------------------------------|
---------------------*-*-----------------*-*----------------PH-|
-*-*-------*-*--*-*-1010--*-*--*-*--*-*-1212--*-*--*-*--*-*-14-|
1010--*-*-1010-1414------1414-1010-1414------1414-1010-1414----|
-----1212------------------------------------------------------|
---------------------------------------------------------------|
R
---------------------------------------------------------|
---------------------------------------------------------|
-----------------**---------------*-*--------------PH----|
-**------**--*-*-88--*-*-**--*-*-1010--*-*-**--*-*-12----|
-88--*-*-88-1212----1212-88-1212------1212-88-1212-------|
----1212-------------------------------------------------|

1:34
L
------------------------------------------------------|
-------------**--*-*-**------**----------------**-PH--|
-*-*-**--*-*-99-1010-99--*-*-99--*-*--*-*--*-*-99-----|
1010-88-1010------------1010----1212-1010-1212----10--|
------------------------------------------------------|
------------------------------------------------------|
R
-------------------------------------------------------|
-------------------------------------------------------|
-------------------------------------------------------|
-**------**--*-*--*-*--*-*-**--*-*--*-*-**--*-*--*-*-PH|
-88--*-*-88-1212-1313-1212-88-1212-1010-88-1010-1212-10|
----1212-----------------------------------------------|

1:36
L
-------------------------------------------------------------------------------|
-------------------------------------------------------------------------------|
***-***-***----*-*-*-------*-*-*--*-*-*-***-***-***----*-*-*-------*-*-*--*-*-*|
000-000-777***101010-*-*-*141414-101010-000-000-777***101010-*-*-*141414-101010|
-----------888------121212-------------------------888------121212-------------|
-------------------------------------------------------------------------------|
R
-------------------------------------------------------------------------------|
-------------------------------------------------------------------------------|
-------------------------------------------------------------------------------|
-------------------------------------------------------------------------------|
***-***------------------------------------***-***-----------------------------|
000-000------------------------------------000-000-----------------------------|

1:41
L
---------------------------------------------------------------|
---------------------*-*-----------------*-*----------------PH-|
-*-*-------*-*--*-*-1010--*-*--*-*--*-*-1212--*-*--*-*--*-*-14-|
1010--*-*-1010-1414------1414-1010-1414------1414-1010-1414----|
-----1212------------------------------------------------------|
---------------------------------------------------------------|
R
---------------------------------------------------------|
---------------------------------------------------------|
-----------------**---------------*-*--------------PH----|
-**------**--*-*-88--*-*-**--*-*-1010--*-*-**--*-*-12----|
-88--*-*-88-1212----1212-88-1212------1212-88-1212-------|
----1212-------------------------------------------------|

1:43
L
------------------------------------------------------|
-------------**--*-*-**------**----------------**-PH--|
-*-*-**--*-*-99-1010-99--*-*-99--*-*--*-*--*-*-99-----|
1010-88-1010------------1010----1212-1010-1212----10--|
------------------------------------------------------|
------------------------------------------------------|
R
-------------------------------------------------------|
-------------------------------------------------------|
-------------------------------------------------------|
-**------**--*-*--*-*--*-*-**--*-*--*-*-**--*-*--*-*-PH|
-88--*-*-88-1212-1313-1212-88-1212-1010-88-1010-1212-10|
----1212-----------------------------------------------|

1:47
L
--------------------------------------------------------------------------------|
--------------------------------------------------------------------------------|
***-***-***-----*-*-*-------*-*-*--*-*-*-***-***-***----*-*-*-------*-*-*--*-*-*|
000-000-777***-101010-*-*-*141414-101010-000-000-777***101010-*-*-*141414-101010|
-----------888-------121212-------------------------888------121212-------------|
--------------------------------------------------------------------------------|
R
--------------------------------------------------------------------------------|
--------------------------------------------------------------------------------|
--------------------------------------------------------------------------------|
--------------------------------------------------------------------------------|
***-***------------------------------------***-***------------------------------|
000-000------------------------------------000-000------------------------------|

1:51
L
---------------------------------------------------------------|
---------------------*-*-----------------*-*----------------PH-|
-*-*-------*-*--*-*-1010--*-*--*-*--*-*-1212--*-*--*-*--*-*-14-|
1010--*-*-1010-1414------1414-1010-1414------1414-1010-1414----|
-----1212------------------------------------------------------|
---------------------------------------------------------------|
R
---------------------------------------------------------|
---------------------------------------------------------|
-----------------**---------------*-*--------------PH----|
-**------**--*-*-88--*-*-**--*-*-1010--*-*-**--*-*-12----|
-88--*-*-88-1212----1212-88-1212------1212-88-1212-------|
----1212-------------------------------------------------|

1:53
L
------------------------------------------------------|
-------------**--*-*-**------**----------------**-----|
-*-*-**--*-*-99-1010-99--*-*-99--*-*--*-*--*-*-99-----|
1010-88-1010------------1010----1212-1010-1212--------|
--------------------------------------------------10--|
------------------------------------------------------|
R
-------------------------------------------------------|
-------------------------------------------------------|
-------------------------------------------------------|
-**------**--*-*--*-*--*-*-**--*-*--*-*-**--*-*--*-*---|
-88--*-*-88-1212-1313-1212-88-1212-1010-88-1010-1212---|
----1212---------------------------------------------10|

1:55
L
-----------------------------------------------------------------------------|
-----------------------------------------------------------------------------|
-----------------------------------------------------------------------------|
-------------------5555----------------7777---------------8888-7777-5555-----|
---------5555-8888------8888-5555-8888-----8888-5555-8888----------------8888|
5555-8888--------------------------------------------------------------------|
R
-----------------------------------------------------------------------------|
-----------------------------------------------------------------------------|
-----------------------------------------------------------------------------|
-------------------5555-----------------------------------5555---------------|
---------5555-8888------8888-5555-8888----------5555-8888------8888-5555-8888|
5555-8888------------------------------5555-8888-----------------------------|

2:00
L
---------------------------------------------------------__----------------|
--------------------------------------------------------/  \---------------|
------------------------------------------------/12-10-9-10-9--9-----------|
--------------------------7777-------------------------------12--12-10-12--|
-------------7777-10101010----10101010-8888-7777---------------------------|
7777-10101010--------------------------------------------------------------|
R
--------------------------------------------------------------------------|
---------------------------------------------------------_----------------|
--------------------------------------------------------/ \---------------|
--------------------------7777------------------10--8--7-8-7---7----------|
-------------7777-10101010----10101010-8888-7777------------10--10--8--10-|
7777-10101010-------------------------------------------------------------|

L
------------------------------------|
------------------------------------|
------------------------------^-----|
--------------------10--10--10-12-10|
-*--*-8-*--*-10-*--*---*---*--------|
-8-10---8-10----8-10--10--10--------|
R
----------------------------------------|
----------------------------------------|
----------------------------------------|
---------------------------------^------|
-*--*-8-*--*-10-*--*-12-*-12-*-12-13-12-|
-8-10---8-10----8-10---10---10----------|

2:07
L
----------------------------------------------------------------------------------|
----------------------------------------------------------------------------------|
----------------------------------------------********-------*-*-*-*-*-*-*-*------|
********-------********-----------------------88888888-10---1010101010101010-12---|
77777777-8-***-77777777-8-***--*-***-*-*-***-*-----------***-------------------***|
-----------000------------000--0-000-0-0-000-0-----------888-------------------888|
R
----------------------------------------------------------------------------------|
----------------------------------------------------------------------------------|
----------------------------------------------------------------------------------|
********----********---------------------*-*-*-*-*-*-*-*--------------------------|
333333335***333333335***-*-***-*-*-***-*101010101010101012***101010101010101012***|
---------000---------000-0-000-0-0-000-0------------------888------------------888|

2:16
B
---------------------------------|
---------------------------------|
-12-10-9--10-9----9----------)(--|
---------------12---12-10-8-7----|
---------------------------------|
---------------------------------|

2:19

L
----------------------------------------------------------------------------------|
----------------------------------------------------------------------------------|
----------------------------------------------********-------*-*-*-*-*-*-*-*------|
********-------********-----------------------88888888-10---1010101010101010-12---|
77777777-8-***-77777777-8-***--*-***-*-*-***-*-----------***-------------------***|
-----------000------------000--0-000-0-0-000-0-----------888-------------------888|
R
----------------------------------------------------------------------------------|
----------------------------------------------------------------------------------|
----------------------------------------------------------------------------------|
********----********---------------------*-*-*-*-*-*-*-*--------------------------|
333333335***333333335***-*-***-*-*-***-*101010101010101012***101010101010101012***|
---------000---------000-0-000-0-0-000-0------------------888------------------888|

2:27
B
---------------------------------|
---------------------------------|
-12-10-9--10-9----9----------)(--|
---------------12---12-10-8-7----|
---------------------------------|
---------------------------------|

2:31
L
---------------------------------------------------------------------------------|
---------------------------------------------------------------------------------|
-14--------10--------14---------10---------10--------9--------10--------9--------|
---10-12-14--14-12-10---10-12-14--14-12-10----7-8-10---10-8-7----7-8-10---10-8-7-|
---------------------------------------------------------------------------------|
---------------------------------------------------------------------------------|
R
---------------------------------------------------------------------------------|
---------------------------------------------------------------------------------|
---------------------------------------------------------------------------------|
---------------------------------------------------------------------------------|
-0--------------------------------------------8---------------------------8-8----|
-0--------------------------------------------8---------------------------8-8----|

2:36
L                                                                __
--------------------------------------------------__------------/  \-------^-TR~~|
-------------------------------------------------/  \--/18-17-15-17-15---13-15---|
14--------10--------14--------10--------/17-15-14-15-14--------------------------|
--10-12-14--14-12-10--10-12-14--14-12-10-----------------------------------------|
---------------------------------------------------------------------------------|
---------------------------------------------------------------------------------|
R
---------------------------------------------------------------------------------|
---------------------------------------------------------------------------------|
---------------------------------------------------------------------------------|
---------------------------------------------------------------------------------|
-0--------------------------------------------8---------------------------10-----|
-0--------------------------------------------8---------------------------10-----|
 |||||||||||||||||||||||||||||||||||||||||||||||||||||||||||||||||||||||||||||||||   
SWEEPS AND RYTHM GTR TABBED SECLUDED
SWEEPS 
2:41 
                       __                                     __          __
  ^                   /  \     _____       ^                 /  \        /  \
17-13---------------13-18-13--/     \----13-17/20-17-------17-18-20-17-15-17-15----|
----15-------------15-------17-13-17-13------------18-----18-------------------1817|
-----14--------15-14-------------------15-----------17---17------------------------|
------15---------------------------------------------19-19-------------------------|
-------17-12-17---------------------------------------20---------------------------|
-----------------------------------------------------------------------------------|

2:46

----17-18-20-22-20-18-------------17-18-20-22-20-18----------|
---18----------------22-20-18---18-----------------22-20-18--|
--19---------------------------19----------------------------|
-20---------------------------20-----------------------------|
-------------------------------------------------------------|
-------------------------------------------------------------|

2:49
-------------__-------------------------------------------------------------|
------------/  \----------------_____-------__------------------------------|
-------19-19/22\19---19--------/     \ ----/  \-----^---------------15-14---|
-17-20------------20---20-19-17-19-17\15-17-15\14-15-14----14-15-17------15-|
--------------------------------------------------------15------------------|
----------------------------------------------------------------------------|

2:51                                                                      __
  ^                                               ^                      /  \
17-13----------13----------------13-15-17-15-13-20-15---------12-15-13-12-13-12----|
----15--------15-17-13--13--13-17-------------------17-------------------------1513|
-----14------14-------14--14-------------------------15------15--------------------|
------15----15----------------------------------------17----16---------------------|
-------171317------------------------------------------181318----------------------|
-----------------------------------------------------------------------------------|

2:55                                                         __
   ^             ^                                          /  \
-15-10---------15-10---------10-13/18-12-----------12-13--12-13-12---------|
-----11-------11---11-------11---------13--------13----------------15-13---|
------10-----10-----10-----10-----------12------12-------------------------|
-------12---12-------12---12-------------14----14--------------------------|
--------13813---------13813---------------151015---------------------------|
---------------------------------------------------------------------------|

3:00                   __                                     __          __
  ^                   /  \     _____       ^                 /  \        /  \
17-13---------------13-18-13--/     \----13-17/20-17-------17-18-20-17-15-17-15---|
----15-------------15-------17-13-17-13------------18-----18------------------1817|
-----14--------15-14-------------------15-----------17---17-----------------------|
------15---------------------------------------------19-19------------------------|
-------17-12-17---------------------------------------20--------------------------|
----------------------------------------------------------------------------------|

3:05

----17-18-20-22-20-18-------------17-18-20-22-20-18----------|
---18----------------22-20-18---18-----------------22-20-18--|
--19---------------------------19----------------------------|
-20---------------------------20-----------------------------|
-------------------------------------------------------------|
-------------------------------------------------------------|

3:08
-------------__-------------------------------------------------------------|
------------/  \----------------_____-------__------------------------------|
-------19-19/22\19---19--------/     \ ----/  \-----^---------------15-14---|
-17-20------------20---20-19-17-19-17\15-17-15\14-15-14----14-15-17------15-|
--------------------------------------------------------15------------------|
----------------------------------------------------------------------------|

3:10
L                
  ^          ^            ^           
20-17----17-20-17----17-19-15----15---------|
----18-18-------18-18-------17-17--17-------|
-----17----------17----------15-------------|
--------------------------------------------|
--------------------------------------------|
--------------------------------------------|
R
   ^          ^          ^                  
-17-13---13-17-13---13-15-12---12-----------|
-----15-15------15-15------13-13-13---------|
------14---------14---------12--------------|
--------------------------------------------|
--------------------------------------------|
--------------------------------------------|

3:13
L
   ^          ^          ^                  
-17-13---13-17-13---13-15-12----------------|
-----15-15------15-15------13---------------|
------14---------14---------12--------------|
-----------------------------14-------------|
------------------------------15-12---------|
--------------------------------------------|
R  ^           ^          ^
-13-10----10-13-10---10-12-8----------------|
------11-11------11-11------10--------------|
-------10---------10----------9-------------|
-------------------------------10-----------|
---------------------------------12-8-------|
--------------------------------------------|

3:16
L                
  ^          ^            ^           
20-17----17-20-17----17-19-15----15---------|
----18-18-------18-18-------17-17--17-------|
-----17----------17----------15-------------|
--------------------------------------------|
--------------------------------------------|
--------------------------------------------|
R
   ^          ^          ^                  
-17-13---13-17-13---13-15-12---12-----------|
-----15-15------15-15------13-13-13---------|
------14---------14---------12--------------|
--------------------------------------------|
--------------------------------------------|
--------------------------------------------|

3:19 _
L   / \    __             __
---9-6-9--/  \-----_-----/  \-----_---------------__-------------|
---------11-8-11--/ \---11-8-11--/ \------__-----/  \------__----|
----------------12-9-12--------12-9-12---/  \---12-9-12---/  \---|
---------------------------------------14-11-14---------14-11-14-|
-----------------------------------------------------------------|
-----------------------------------------------------------------|
 R  __
   /  \     ___               ___
--12-9-12--/   \------__-----/   \------__---------------___------------|
----------14-11-14---/  \---14-11-14---/  \------__-----/   \------__---|
-------------------15-12-15----------15-12-15---/  \---15-12-15---/  \--|
----------------------------------------------17-14-17----------17-14-17|
------------------------------------------------------------------------|
------------------------------------------------------------------------|
||||||||||||||||||||||||||||||||||||||||||||||||||||||||||||||||
RYTHM UNDER THE SWEEPS  

2:41
--------------------------------------------------------__------------|
-------------------------------------------------------/  \-----------|
--------------------------_-----------------------10--9-10-9--7-------|
-7--------5-7-------_----/ \--***-7-**-10-**-7-**----------------10---|
-5-******-3-5-***--/ \--3-5-7-888---88----88---88---------------------|
---000000-----000-3-5-7-----------------------------------------------|

2:46
----------------------------------------------------------------------------------|
--------------------------------------------------------------_-------------------|
-------------------------------------------------------------/ \------------------|
-----7----------7----10----7----------7\--------------------5-7-5---5-------------|
-***---**-10-**---**----**---**-10-**----***-8-**-7-**-8-**-------8---8-7-5-7-8-7~|
-888---88----88---88----88---88----88----555---55---55---55-----------------------|

2:51
------------------------------------------------------------------__----------|
-----------------------------------------------------------------/  \---------|
-----------------------------------------------------------12--10-12-10-9-----|
-7--------5-3----3--------------------------------------------------------10\-|
-5-******-3-1----1-3-*********-5-***-7-***-8--------10------------------------|
---000000----------3-333333333-5-555-7-777-8--------10------------------------|

3:01
--------------------------------------------------------__------------|
-------------------------------------------------------/  \-----------|
--------------------------_-----------------------10--9-10-9--7-------|
-7--------5-7-------_----/ \--***-7-**-10-**-7-**----------------10---|
-5-******-3-5-***--/ \--3-5-7-888---88----88---88---------------------|
---000000-----000-3-5-7-----------------------------------------------|
                                                             __
 3:06                                                __     /  \
---------------------------------------------___----/  \--12-13-15/17-15-13--|
------------------------------------___-----/   \-11-13-15-----------------15|
-----------------------------___---/   \--10-12-14---------------------------|
----7------7--10--7------7--/   \-10-12-14-----------------------------------|
***--**10**-**--**-**10**-10-12-14-------------------------------------------|
888--88--88-88--88-88--88----------------------------------------------------|

3:11
------------------------------------------|
------------------------------------------|
------------------------------------------|
------------------------------------------|
-0------0---*-*-*-10----8-----8---*-*-*-3-|
-0-|----0|--0-0-0-10----8-|---8---8-8-8-3-|

3:16
---------------------------------------------|
---------------------------------------------|
-------------------------------------9-12----|
--------------------------------8-11---------|
-0------0---*-*-*-10-------7-10--------------|
-0-|----0|--0-0-0-10--8-11-------------------|

||||||||||||||||||||||||||||||||||||||||||||||||

3:21
B
--------------------------------------------------|
--------------------------------------------------|
--------------------------------------------------|
--------------------------------------------------|
-0------0-0---PS----0-0------0-8---8---10--11-----|
-0------0-0|--------0-0------0-8|--8---10--11|----|

3:30
L
--------------------------------------------------------------------------|
--------------------------------------------------------------------------|
------------__----------------__------------------------------------------|
-----------/  \--------------/  \--12-*-12-*-15-*-14-*-12-*-12-*12\10--^--|
8-*-*8-*-*8-10-12-8-*-*8-*-*8-10-12--13---13---13---13---13---13-----12-10|
-1212-1212---------1212-1212----------------------------------------------|
R
--------------------------------------------------------------------------|
--------------------------------------------------------------------------|
------------__-------------------__---------------------------------------|
-----------/  \-----------------/  \---8-*-8-*-12-*-10-*-8-*-8-*-8\7--^---|
8-*-*8-*-*8-10-12-8-*-*-8--*-*-8-10-12--10--10---10---10--10--10-----8-7--|
-1212-1212---------1212---1212--------------------------------------------|

3:34
L
-------------------------------------------------------------------------|
-------------------------------------------------------------------------|
----------------__--------------------__---------------------------------|
---------------/  \------------------/  \---8-*-8-*-10-*-10-*-12-*-12-*14|
8--*-*-8--*-*-8-10-12-8--*-*-8--*-*-8-10-12--10--10---12---12---13---13--|
--1212---1212-----------1212---1212--------------------------------------|
R
-------------------------------------------------------------------------|
-------------------------------------------------------------------------|
-----------------__--------------------__--------------------------------|
----------------/  \------------------/  \---5-*-5-*-7-*-7-*-8--*-8--*-10|
-8--*-*-8--*-*-8-10-12-8--*-*-8--*-*-8-10-12---7---7---8---8---10---10---|
---1212---1212-----------1212---1212-------------------------------------|

3:38
L
-----------------------------------------------------------------------|
-----------------------------------------------------------------------|
------------__------------------__-----------------------------^-------|
-----------/  \----------------/  \--12-*12-*15-*14-*12-*12-*12-15--^--|
8-*-*8-*-*8-10-12-8-*-*-8-*-*-8-10-12--13--13--13--13--13--13-----12-15|
-1212-1212---------1212--1212------------------------------------------|
R
-----------------------------------------------------------------------|
-----------------------------------------------------------------------|
------------__--------------------__-----------------------------------|
-----------/  \------------------/  \--8-*-8-*-12-*-10-*-8-*-8-*-8\7-^-|
8-*-*8-*-*8-10-12-8-*-*-8--*-*-8-10-12--10--10---10---10--10--10----8-7|
-1212-1212---------1212---1212-----------------------------------------|

3:42
L
----------------------------------------------------------------------|
----------------------------------------------------------------------|
-----------------__-------------------__------------------------------|
----------------/  \-----------------/  \--8-*8-*10-*-10-*12-*-12-*14-|
-8--*-*-8--*-*-8-10-12-8--*-*-8--*-*8-10-12-10-10--12---12--13---13---|
---1212---1212-----------1212---1212----------------------------------|
R
-----------------------------------------------------------------------|
-----------------------------------------------------------------------|
----------------__--------------------__-------------------------------|
---------------/  \------------------/  \---5-*-5-*-7-*-7-*-8--*-8--*10|
8--*-*-8--*-*-8-10-12-8--*-*-8--*-*-8-10-12---7---7---8---8---10---10--|
--1212---1212-----------1212---1212------------------------------------|

3:47
L             ^
---------10-12-13---------------^---|
-------11---------------8------8-10-|
---7/10---------------9---9---------|
--8-----------------10------10------|
-8----------------10----------------|
------------------------------------|
R
------------------------------------|
------------------------------------|
------------------------------------|
///----------------///---------^----|
------------------------------7-8---|
-8------------------10--------------|


3:49
L           __                            __
-----------/  \--------------------------/  \------------------------------|
----------8/13\8------------------------8/13\8----------------------------p|
---------9------9---9------------------9------9--9--------///-///-///-///-H|
----^--10--------10---10----^-------^-10-------10-10----^--8--12--10--8--6~|
**-8-12-----------------12-8-12-**-8-12-------------12-8-12----------------|
00------------------------------00-----------------------------------------|
 R         __                             __
----------/  \---------------------------/  \------------------------------|
---------5/10\5-------------------------5/10\5-----------------------------|
--------5------5---5-------------------5------5-5--------------------------|
----^--7---------7---7---^---------^--7--------7-7---^-------------------P-|
**-5-8----------------8-5-8----**-5-8-------------8-5-8-///-///-///-///--H-|
00-----------------------------00-----------------------5----8---7---5---3~|

3:56
L
----------------------------------------------------------------------|
-----------------------------------------------------^----------------|
----------------------------------------------------9-7---------------|
-------------------------------------------------------10-8-10-8------|
***-***---------------------------***-***------------------------10/12|
222-222---------------------------222-222-----------------------------|
R
---------------------------------------------------------------------|
----------------**-*-------------------------------------------------|
------------**-*66-3-**-*---*------------------**-*---5-3-2---2------|
--------**-*55-2-----55-2-*-2-*-*---------**-*-55-2---------5---5-2-3|
***-***-44-1--------------4---4-1-***-***-44-1-----------------------|
222-222---------------------------222-222----------------------------|


4:00
L             ^
---------10-12-13---------------^---|
-------11---------------8------8-10-|
---7/10---------------9---9---------|
--8-----------------10------10------|
-8----------------10----------------|
------------------------------------|
R
------------------------------------|
------------------------------------|
------------------------------------|
///----------------///---------^----|
------------------------------7-8---|
-8------------------10--------------|

4:02
L      -    __                            __
-----------/  \--------------------------/  \------------------------------|
----------8/13\8------------------------8/13\8----------------------------p|
---------9------9---9------------------9------9--9--------///-///-///-///-H|
----^--10--------10---10----^-------^-10-------10-10----^--8--12--10--8--6~|
**-8-12-----------------12-8-12-**-8-12-------------12-8-12----------------|
00------------------------------00-----------------------------------------|
 R         __                             __
----------/  \---------------------------/  \------------------------------|
---------5/10\5-------------------------5/10\5-----------------------------|
--------5------5---5-------------------5------5-5--------------------------|
----^--7---------7---7---^---------^--7--------7-7---^-------------------P-|
**-5-8----------------8-5-8----**-5-8-------------8-5-8-///-///-///-///--H-|
00-----------------------------00-----------------------5----8---7---5---3~|
     

4:09
L
-------------------------------------------------------------------------|
-------------------------------------------------------------------------|
-------------------------------------------------------------------------|
-------------------------------------------------------------------------|
***-***-------------------***-***----------***-***--------------***-***--|
222-222-------------------222-222----------222-222--------------222-222--|
R
-------------------------------------------------------------------------|
----------------**-*----------------------------------------**-*---------|
------------**-*66-3-**-*-------------**-*-------------**-*-66-3---------|
--------**-*55-2-----55-2---------**-*55-2---------**-*55-2--------------|
***-***-44-1--------------***-***-44-1-----***-***-44-1----------***-***-|
222-222-------------------222-222----------222-222---------------222-222-|

4:13
L                                                                 ^
-------------------------------------------------------------^---9-12--|
------------------------------------------------------------8-11-------|
------------------------------------------------------^---9------------|
-------------------------5-5-2-2-11-11-8-8-----------8-11--------------|
-----------------4-4-1-1-------------------10-10-7-7-------------------|
-----------------------------------------------------------------------|
R                                                               ^
------------------------------------------------------------^--6-9|
-----------------------------------------------------------5-8----|
------------------------------------------------------^--6--------|
---------5-5-2-2-11-11-8-8-----------8-8-5-5---------5-8----------|
-4-4-1-1-------------------10-10-7-7---------7-7-4-4--------------|
------------------------------------------------------------------|

4:18
L
-------------------------------------------------------------------------------------|
-------------------------------------------------------------------------------------|
-------------------------------------------------------------------------------------|
-------------------------------------------------------------------------------------|
-1-**-1-**-1-*-*-*-0-*-*-*-*-*----------***-*-*------*-*----1-**-1-**-1-*-*-*-0-*-*-*|
---22---22---4-3-1---4-1-4-0-0----------000-0-0------0-0------22---22---4-3-1---4-1-4|
R
-------------------------------------------------------------------------------------|
-------------------------------------------------------------------------------------|
P----P------------------------------------------------------P----P-------------------|
H)---H)-----------------------------------------------------H)---H)------------------|
4-**-4-**-1-*-*-*-0-*-*-*-*-*-****-*-*-****-*-*-***--*-*-**-4-**-4-**-1-*-*-*-0-*-*-*|
--22---22---4-3-1---4-1-4-0-0-0000-0-0-0000-0-0-000--0-0-00---22---22---4-3-1---4-1-4|

4:25
L
---------------------------------------------------------------|
---------------------------------------------------------------|
---------------------------------------------------------------|
---------------------------------------*-*-*-------*-*-*-------|
-*-*-***-*-*-****-*-*-***--*-*--***----1-1-1-------1-1-1-------|
-0-0-000-0-0-0000-0-0-000--0-0--000----2-2-2-------2-2-2-------|
R
---------------------------------------------------------------|
---------------------------------------------------------------|
---------------------------------------------------------------|
---------------------------------------*-*-*--------*-*-*------|
-*-*---------****-*-*------*-*---------1-1-1--------1-1-1------|
-0-0---------0000-0-0------0-0---------2-2-2--------2-2-2------|

4:31
L
-------------------------------------------------------------------------------------|
-------------------------------------------------------------------------------------|
-------------------------------------------------------------------------------------|
-------------------------------------------------------------------------------------|
-1-**-1-**-1-*-*-*-0-*-*-*-*-*----------***-*-*------*-*----1-**-1-**-1-*-*-*-0-*-*-*|
---22---22---4-3-1---4-1-4-0-0----------000-0-0------0-0------22---22---4-3-1---4-1-4|
R
-------------------------------------------------------------------------------------|
-------------------------------------------------------------------------------------|
P----P------------------------------------------------------P----P-------------------|
H)---H)-----------------------------------------------------H)---H)------------------|
4-**-4-**-1-*-*-*-0-*-*-*-*-*-****-*-*-****-*-*-***--*-*-**-4-**-4-**-1-*-*-*-0-*-*-*|
--22---22---4-3-1---4-1-4-0-0-0000-0-0-0000-0-0-000--0-0-00---22---22---4-3-1---4-1-4|

4:38
L
----------------------------------------------------------------------------|
----------------------------------------------------------------------------|
--------------------------------------------------------------------------P-|
-------------------------------------*****---*****-------*****------------H~|
-*-*-***-*-*-****-*-*-***--*-*--***--11111---11111-------------**-1-*-*-*-3-|
-0-0-000-0-0-0000-0-0-000--0-0--000--22222---22222-------22222-22---4-3-1---|
R
-----------------------------------------------------------------------------|
-----------------------------------------------------------------------------|
--------------------------------------------------------------------------P--|
-------------------------------------*****---*****-------*****------------H~-|
-*-*---------****-*-*------*-*-------11111---11111-------------**-1-*-*-*-3--|
-0-0---------0000-0-0------0-0-------22222---22222-------22222-22---4-3-1----|

4:45
L
-------------------------------------------------|
-------------------------------------------------|
-------------------------------------------------|
-------------------------------------------------|
-1-**-1-**-1-*-*-*-0-*-*-*-///-------------------|
---22---22---4-3-1---4-1-4--0--------------------|
R
-------------------------------------------------|
-------------------------------------------------|
-------------------------------------------------|
-------------------------------------------------|
-4-**-4-**-1-*-*-*-0-*-*-*--TREM PICK-HARMONICS--|
---22---22---4-3-1---4-1-4---BACK AND FORTH------|

4:49
L
-------------------------------------------------|
-------------------------------------------------|
-------------------------------------------------|
-------------------------------------------------|
-1-**-1-**-1-*-*-*-0-*-*-*-///-------------------|
---22---22---4-3-1---4-1-4--0--------------------|
R
-------------------------------------------------|
-------------------------------------------------|
-------------------------------------------------|
-------------------------------------------------|
-4-**-4-**-1-*-*-*-0-*-*-*--TREM PICK-HARMONICS--|
---22---22---4-3-1---4-1-4---BACK AND FORTH------|

4:53
B
---------------------------------------------|
---------------------------------------------|
---------------------------------------------|
-*-*-*----*-*-*--*-*-*--*-*-*----------P-----|
-1-1-1----1-1-1--1-1-1--1-1-1----------H)----|
-2-2-2----2-2-2--2-2-2--2-2-2----0-1-3-3-----|

4:57
L
-----------------------------------------------------|
-----------------------------------------------------|
-----------------------------------------------------|
--------------------7-5-----------------------8-7----|
**-5-*-4-**-8-*-7-*-----8-**-5-*-4-**-8-*-7-*----10--|
00---0---00---0---0-------00---0---00---0---0--------|
R
-------------------------------------------------------|
-------------------------------------------------------|
-------------------------------------------------------|
------------7---5---10-8-7-------------7---5---12-10-8-|
**-8-*-7-**---*---*--------**-8-*-7-**---*---*---------|
00---0---00---0---0--------00---0---00---0---0---------|

5:02
L
----------------------------------------------------------------------|
----------------------------------------------------------------------|
----------------------------------------------------------------------|
----------8---------10---------12--------------8----------------------|
-*---8-12---12-8-12----12-8-12-------*----8-12---12-8-12-10-8-10-12---|
-8-12--------------------------------8-12---------------------------10|
R
-----------------------------------------------------------------------|
-------------------------------10--------------------------------------|
---------9-10-9----9-12-9----9---------------9-10-9----9----------10-9-|
-*----10--------10--------10---------*----10--------10---12-10-12------|
-8-12--------------------------------8-12------------------------------|
-----------------------------------------------------------------------|

5:06
B
---------------------------------------------|
---------------------------------------------|
---------------------------------------------|
-*-*-*----*-*-*--*-*-*--*-*-*----------P-----|
-1-1-1----1-1-1--1-1-1--1-1-1----------H)----|
-2-2-2----2-2-2--2-2-2--2-2-2----0-1-3-3-----|

5:10
L
-----------------------------------------------------|
-----------------------------------------------------|
-----------------------------------------------------|
--------------------7-5-----------------------8-7----|
**-5-*-4-**-8-*-7-*-----8-**-5-*-4-**-8-*-7-*----10--|
00---0---00---0---0-------00---0---00---0---0--------|
R
-------------------------------------------------------|
-------------------------------------------------------|
-------------------------------------------------------|
------------7---5---10-8-7-------------7---5---12-10-8-|
**-8-*-7-**---*---*--------**-8-*-7-**---*---*---------|
00---0---00---0---0--------00---0---00---0---0---------|

5:15
L
----------------------------------------------------------------------|
----------------------------------------------------------------------|
----------------------------------------------------------------------|
----------8---------10---------12--------------8----------------------|
-*---8-12---12-8-12----12-8-12-------*----8-12---12-8-12-10-8-10-12---|
-8-12--------------------------------8-12---------------------------11|
R
---------------------------------------------------------------|
-------------------------6-------------------------------------|
-----*-5-7-5---5-9-5---5----------------*-5-7-5---5-------5----|
-*-*-7-------7-------7--------------*-*-7-------8---8-7-8------|
-5-9--------------------------------5-9---------------------7--|
---------------------------------------------------------------|

5:18
B
---------------------------------------------|
---------------------------------------------|
---------------------------------------------|
-*-*-*----*-*-*--*-*-*--*-*-*----------P-----|
-1-1-1----1-1-1--1-1-1--1-1-1----------H)----|
-2-2-2----2-2-2--2-2-2--2-2-2----0-1-3-3-----|

5:23
L
-----------------------------------------------------|
-----------------------------------------------------|
-----------------------------------------------------|
--------------------7-5-----------------------8-7----|
**-5-*-4-**-8-*-7-*-----8-**-5-*-4-**-8-*-7-*----10--|
00---0---00---0---0-------00---0---00---0---0--------|
R
-------------------------------------------------------|
-------------------------------------------------------|
-------------------------------------------------------|
------------7---5---10-8-7-------------7---5---12-10-8-|
**-8-*-7-**---*---*--------**-8-*-7-**---*---*---------|
00---0---00---0---0--------00---0---00---0---0---------|

5:27
L
----------------------------------------------------------------------|
----------------------------------------------------------------------|
----------------------------------------------------------------------|
----------8---------10---------12--------------8----------------------|
-*---8-12---12-8-12----12-8-12-------*----8-12---12-8-12-10-8-10-12---|
-8-12--------------------------------8-12---------------------------10|
R
-----------------------------------------------------------------------|
-------------------------------10--------------------------------------|
---------9-10-9----9-12-9----9---------------9-10-9----9----------9----|
-*----10--------10--------10---------*----10--------10---12-10-12------|
-8-12--------------------------------8-12--------------------------10--|
-----------------------------------------------------------------------|

5:30
L
--------------------------------------------------------------------------------|
--------------------------------------------------------------------------------|
--------------------------------------------------------------------------------|
-------------------5555----------------7777---------------8888-7777-5555--------|
---------5555-8888------8888-5555-8888-----8888-5555-8888----------------8888---|
5555-8888-----------------------------------------------------------------------|
R
--------------------------------------------------------------------------------|
--------------------------------------------------------------------------------|
--------------------------------------------------------------------------------|
-------------------5555-----------------------------------5555------------------|
---------5555-8888------8888-5555-8888----------5555-8888------8888-5555-8888---|
5555-8888------------------------------5555-8888--------------------------------|

5:35
L
---------------------------------------------------------------__-----------------|
--------------------------------------------------------------/  \----------------|
----------------------------------------------------/12--10--9-10-9----9----------|
-----------------------------7777-----------------------------------12---12-10-12-|
---------------7777-10101010-----10101010-8888-7777-------------------------------|
-7777-10101010--------------------------------------------------------------------|
R
----------------------------------------------------------------------------------|
--------------------------------------------------------------_-------------------|
-------------------------------------------------------------/ \------------------|
-----------------------------7777--------------------10--8--7-8-7----7------------|
---------------7777-10101010-----10101010-8888-7777---------------10---10--8--10--|
-7777-10101010--------------------------------------------------------------------|

5:41
B
--------------------------------------------------------------------------------------|
--------------------------------------------------------------------------------------|
--------------------------------------------------------------------------------------|
-------------------------------------------------PH)----------------------------------|
*--*-8-*--*-10-*--*-12-*-*-*-12-*-*-*-12-*-*-*-*-12-****-****-**-*-****---****-****-**|
8-10---8-10----8-10---101010---101010---10101010----0000-0000-00-0-0000---0000-0000-00|

5:49
L
--------_____----------------------|
-------/     \---^-----------------|
------2-3-7-3-2-3-2---2------------|
--^--3--------------5---5-3-2-3----|
-2-5-------------------------------|
-----------------------------------|
R
-----------____--------------------|
----------/    \---^---------------|
-------5-7-10-7-5-7-5---5----------|
--^--7----------------8---8-7-5-7--|
-5-8-------------------------------|
-----------------------------------|

5:51
B
-------------------------------------------------------------------------|
-------------------------------------------------------------------------|
-------------------------------------------------------------------------|
---------PH)-------------------------------------------------------------|
--*-*-*-*12--****-****-**-*-****---****-****-**--*-***-*--*--*--*--*-----|
-10101010----0000-0000-00-0-0000---0000-0000-00--8-888-8-10-10-10-10-|---|

||||||||||||||||||||||||||||||||||||||||||||||||||||||||||||||||||||||||||


5:58   __           __           __          ___
SWEEPS/  \         /  \         /  \        /   \
----12-15-12-----12-15-12-----13-17-13-----13-17-13----|
---13------13---13------13---13------13---13-------13--|
--14--------14-14--------14-14--------14-14---------14-|
-15----------15-----------15-----------15--------------|
-------------------------------------------------------|
-------------------------------------------------------|
5:59
       __           __           __           __
      /  \         /  \         /  \         /  \    
----12-15-12-----12-15-12-----13-17-13-----13-17-13----|
---13------13---13------13---13------13---13-------13--|
--14--------14-14--------14-14--------14-14---------14-|
-15----------15-----------15-----------15------------15|
-------------------------------------------------------|
-------------------------------------------------------|
6:01 

    ^
---13-17-13-12-13-12------------12-13-15-17-15-13-15---|
--13----------------13-11-13-15------------------------|
-14----------------------------------------------------|
-------------------------------------------------------|
-------------------------------------------------------|
-------------------------------------------------------|
6:03  
               __          __           __      
    ^         /  \        /  \         /  \     
-/20-17-----17-20-17----17-22-17-----17-22-17----|
------18---18------18---18-----18---18------18---|
-------19-19--------19-19-------19-19--------19--|
--------20-----------20----------20-----------20-|
-------------------------------------------------|
-------------------------------------------------|
 6:04
       __          __           __           __
      /  \        /  \         /  \         /  \
---17-20-17-----17-20-17-----17-22-17-----17-20-17----18-17-15--17-15---15-------------|
--18------18---18------18---18------18---18------18------------------18---18-17-15---)(|
-19--------19-19--------19-19--------19-19--------19-------------------------------17--|
------------20-----------20-----------20-----------20----------------------------------|
---------------------------------------------------------------------------------------|
---------------------------------------------------------------------------------------|

6:09
L      __           __           __           __
      /  \         /  \         /  \         /  \    
----12-15-12-----12-15-12-----13-17-13-----13-17-13----|
---13------13---13------13---13------13---13-------13--|
--14--------14-14--------14-14--------14-14---------14-|
-15----------15-----------15-----------15--------------|
-------------------------------------------------------|
-------------------------------------------------------|
       __           __             __           __
R     /  \         /  \           /  \         /  \
----15-18-15-----15-18-15-------17-20-17-----17-20-17----|
---16------16---16------16-----18------18---18------18---|
--17--------17-17--------17---19--------19-19--------19--|
-18----------18-----------18-20----------20--------------|
---------------------------------------------------------|
---------------------------------------------------------|

6:11
L      __           __           __           __
      /  \         /  \         /  \         /  \    
----12-15-12-----12-15-12-----13-17-13-----13-17-13----|
---13------13---13------13---13------13---13-------13--|
--14--------14-14--------14-14--------14-14---------14-|
-15----------15-----------15-----------15------------15|
-------------------------------------------------------|
-------------------------------------------------------|
       __           __             __           __
R     /  \         /  \           /  \         /  \
----15-18-15-----15-18-15-------17-20-17-----17-20-17----|
---16------16---16------16-----18------18---18------18---|
--17--------17-17--------17---19--------19-19--------19--|
-18----------18-----------18-20----------20-----------20-|
---------------------------------------------------------|
---------------------------------------------------------|

6:13
B    ^
---17-13-12-13-12------------12-13-15-17-15-13-12------|
-----------------13-11-13-15---------------------------|
-------------------------------------------------------|
-------------------------------------------------------|
-------------------------------------------------------|
-------------------------------------------------------|
6:15
        __           __             __           __
L      /  \         /  \           /  \         /  \
-----10-13-10-----10-13-10-------12-15-12-----12-15-12----|
----11------11---11------11-----13------13---13------13---|
---12--------12-12--------12---14--------14-14--------14--|
--13----------13-----------13-15----------15-----------15-|
----------------------------------------------------------|
----------------------------------------------------------|
R     _         _            __           __
     / \       / \          /  \         /  \
----5-8-5-----5-8-5--------8-12-8-------8-12-8-----|
---6-----6---6-----6------9------9-----9------9----|
--7-------7-7-------7---10--------10-10--------10--|
-8---------8---------8-11----------11------------11|
---------------------------------------------------|
---------------------------------------------------|
6:16
        __           __             __           __
L      /  \         /  \           /  \         /  \
-----10-13-10-----10-13-10-------12-15-12-----12-15-12----|
----11------11---11------11-----13------13---13------13---|
---12--------12-12--------12---14--------14-14--------15--|
--13----------13-----------13-15----------15--------------|
----------------------------------------------------------|
----------------------------------------------------------|
R     _         _            __           __
     / \       / \          /  \         /  \
----5-8-5-----5-8-5--------8-12-8-------8-12-8-----|
---6-----6---6-----6------9------9-----9------9----|
--7-------7-7-------7---10--------10-10--------10--|
-8---------8---------8-11----------11--------------|
---------------------------------------------------|
---------------------------------------------------|

6:19

--18-17-15--17-15---15---------------------|
-----------------18---18-17-15---)(~-------|
-------------------------------17----------|
-------------------------------------------|
-------------------------------------------|
-------------------------------------------|
||||||||||||||||||||||||||||||||||||||||||||||||||||||||||||||
5:57
RYTHM
----------------------------------------------------------------------------------------|
----------------------------------------------------------------------------------------|
----------------------------------------------------------------------------------------|
-------------------------------------------------------------------*-*-*-*-*-*-*-*------|
-*-*-*-*-*-*-*-*12-*-*-*--*-*-*-*-*-*-*-*12-*-*-*-*-***-*-*-***-*-1010101010101010-12***|
1010101010101010---0-0-0-1010101010101010---0-0-0-0-000-0-0-000-0--------------------888|

6:03
-----------------------------------------------------------|
-----------------------------------------------------------|
--------------------------/12-10-9--10-9-----9----------)(-|
-----------------------------------------12----12-10-8-7---|
1010101010101010-12-*-*-*----------------------------------|
--------------------8-8-8----------------------------------|
6:09
----------------------------------------------------------------------------------------|
----------------------------------------------------------------------------------------|
----------------------------------------------------------------------------------------|
-------------------------------------------------------------------*-*-*-*-*-*-*-*------|
-*-*-*-*-*-*-*-*12-*-*-*--*-*-*-*-*-*-*-*12-*-*-*-*-***-*-*-***-*-1010101010101010-12***|
1010101010101010---0-0-0-1010101010101010---0-0-0-0-000-0-0-000-0--------------------888|

6:15
-----------------------------------------------------------|
-----------------------------------------------------------|
--------------------------/12-10-9--10-9-----9----------)(-|
-----------------------------------------12----12-10-8-7---|
1010101010101010-12-*-*-*----------------------------------|
--------------------8-8-8----------------------------------|
|||||||||||||||||||||||||||||||||||||||||||||||||||||||||||
6:21
B
----------------------------------------|
----------------------------------------|
----------------------------------------|
---------------------------------^------|
-*--*-8-*--*-10-*--*-12-*-12-*-12-13-12-|
-8-10---8-10----8-10---10---10----------|
Suggest correction
Creating personal tab
Creating personal tab
You can edit any tab online and save it as your Personal.

You can edit, replace or remove any tab part or add personal notes – all changes will be seen only by you.

Personal tabs can be accessed anytime from any device, even offline.
Learn more »
Give kudos to tab author, rate the tab!
1 2 3 4 5
comments
print report bad tab
guest
You may want to rate the tab now too:
select rating
Wanna post a correction for this tab? Suggest correction