Oops, an error
Loading. Please wait.

In Times Of Wars And Worries tab

version 1
version 1

Whole song

188 views 1 this week
no commentswrite comment
1 2 3 4 5
1 last vote to show rating
add to favorites
×
Save as Personal and add changes to this tab that will be seen only by you. Learn more ›
×
You can save this tab as Personal to edit and correct it or add notes. All changes will be seen only by you. Learn more »
launch autoscroll
font size
0
reset
how to read this tab
guitar tuner
edit
Autoscroll
slow
fast
+/-
esc
set tempo
stop
Conducting From The Grave
In Times Of Wars And Worries [trials of the forsaken EP]

C#-G#-C#-F#-A#-D#

*=PALM MUTE
^=HAMMER ON /PULL OFF
PH=PINCH HARMONIC
tr~~=TRILL
///=TREMELO PIC

TABBED BY-andherembrace

WHOLE SONG BOTH PARTS INCLUDING SOLO




-------------------------------------------------------------------|
-------------------------------------------------------------------|
-----_-------_---------_--------_-------_-------_-------_-------_--|
----/ \-----/ \-------/ \------/ \-----/ \-----/ \-----/ \-----/ \-|
---8-7-8---8-7-8----10-8-10---8-7-8---8-7-8---8-7-8---7-5-7---8-7-8|
000-----000------888-------777-----000-----000-----555-----777-----|
***     ***      ***       ***     ***     ***     ***     ***     

---------------------------------------------------------------------------|
---------------------------------------------------------------------------|
-----_-------_---------_--------_-------_-------_-------__------------__---|
----/ \-----/ \-------/ \------/ \-----/ \-----/ \-----/  \----------/  \--|
---8-7-8---8-7-8----10-8-10---8-7-8---8-7-8---8-7-8---10-8-10------13-12-10|
000-----000------888-------777-----000-----000-----888-------101010--------|
***     ***      ***       ***     ***     ***     ***        * * *     


0:12
L
-------------------------------------------------------------------------|
-------------------------------------------------------------_-------_---|
--------________-----------__________----------_______------/ \-----/ \--|
-------/        \---------/          \--------/       \----7-5-7---8-7-8-|
------8-7-8-10-8-7------10-8-10-12-10-8------7-5-7-8-7-5-----------------|
000000------------888888---------------555555-----------777------888-----|
******            ******               ******           ***      ***   
R
---------------------------------------------------------------------------|
---------------------------------------------------------------------------|
--------________-----------__________----------_______-------_---------_---|
-------/        \---------/          \--------/       \-----/ \-------/ \--|
------8-7-8-10-8-7------10-8-10-12-10-8------7-5-7-8-7-5---8-7-8----10-8-10|
000000------------888888---------------555555-----------777------888-------|
******            ******               ******           ***    - ***   



--------------------------------------------------------------------------|
--------------------------------------------------------------------------|
--------________-----------__________----------_______-------_------------|
-------/        \---------/          \--------/       \-----/ \-------_---|
------8-7-8-10-8-7------10-8-10-12-10-8------7-5-7-8-7-5---3-5-3-----/ \--|
000000------------888888---------------555555-----------333-----222-2-3-2-|
******            ******               ******           ***     ***   

-------------------------------------------------------------------|
-------------------------------------------------------------------|
-----_-------_---------_--------_-------_-------_-------_-------_--|
----/ \-----/ \-------/ \------/ \-----/ \-----/ \-----/ \-----/ \-|
---8-7-8---8-7-8----10-8-10---8-7-8---8-7-8---8-7-8---7-5-7---8-7-8|
000-----000------888-------777-----000-----000-----555-----777-----|
***     ***      ***       ***     ***     ***     ***     ***     

---------------------------------------------------------------------------|
---------------------------------------------------------------------------|
-----_-------_---------_--------_-------_-------_-------__------------__---|
----/ \-----/ \-------/ \------/ \-----/ \-----/ \-----/  \----------/  \--|
---8-7-8---8-7-8----10-8-10---8-7-8---8-7-8---8-7-8---10-8-10------13-12-10|
000-----000------888-------777-----000-----000-----888-------101010--------|
***     ***      ***       ***     ***     ***     ***        * * *     


0:33     L
------------------------|
------------------------|
------------------------|
------------------------|
------------------------|
-0000----0000000--------|
 ****    *******                               



-------------------------------------------------------------------------|
-------------------------------------------------------------------------|
-------------------------------------------------------------------------|
-------------------------------------------------------------------------|
-------------------------------------------------------------------------|
0000----0000000----0000----0000000----0000----0000000----0000----0000000-|
****    *******    ****    *******    ****    *******    ****    ******* 

L       
---------------------------------------------------|
---------------------------------------------------|
---------------------------------------------------|
-7-5-7---------------------------------------------|
---------------------------------------------------|
-------0000----0000000000------0000------0000000---|
       ****    **********      ****      *******           
R
---------------------------------------------------|
---------------------------------------------------|
---------------------------------------------------|
---------------------------------------------------|
-8-7-8---------------------------------------------|
-------0000----0000000000------0000------0000000---|
       ****    **********      ****      *******

L       
---------------------------------------------------|
---------------------------------------------------|
---------------------------------------------------|
-7-5-7---------------------------------------------|
---------------------------------------------------|
-------0000----0000000000------0000------0000000000|
       ****    **********      ****      **********           
R
---------------------------------------------------|
---------------------------------------------------|
---------------------------------------------------|
---------------------------------------------------|
-8-7-8---------------------------------------------|
-------0000----0000000000------0000------0000000000|
       ****    **********      ****      **********

0:57
L
------------------------------------------------------------------|
------------------------------------------------------------------|
------------------------------------------------------------------|
-----------5--7--8-7-5------5555555577777777555588888888----------|
-----7-8----------------7-8------------------------------3---7--5-|
-0-0--------------------------------------------------------------|
 * *
R
-----------------------------------------------------------------------|
-----------------------------------------------------------------------|
---------9-10--12-10-9-------------------------------------------------|
---10-12--------------10--888888881010101010101010888877777777---------|
------------------------12-------------------------------------7--10--8|
0-0--------------------------------------------------------------------|
* *

L
-----------------------------------------------------------------------|
-----------------------------------------------------------------------|
-----------------------------------------------------------------------|
-----------5--7--8-7-5------55555555777777775555-------------------)(--|
-----7-8----------------7-8---------------------88888888-3---7-8--7---5|
-0-0-------------------------------------------------------------------|
 * *
R
---------------------------------------------------------------------------|
---------------------------------------------------------------------------|
--------9-10-12-10-9-------------------------------------------------------|
---10-12------------10--888888881010101010101010888877777777------------)(-|
----------------------12------------------------------------7--10-12-10---8|
0-0------------------------------------------------------------------------|
* *



1:20

-------------------------------------------------------------------|
-------------------------------------------------------------------|
-----_-------_---------_--------_-------_-------_-------_-------_--|
----/ \-----/ \-------/ \------/ \-----/ \-----/ \-----/ \-----/ \-|
---8-7-8---8-7-8----10-8-10---8-7-8---8-7-8---8-7-8---7-5-7---8-7-8|
000-----000------888-------777-----000-----000-----555-----777-----|
***     ***      ***       ***     ***     ***     ***     ***     

---------------------------------------------------------------------------|
---------------------------------------------------------------------------|
-----_-------_---------_--------_-------_-------_-------__------------__---|
----/ \-----/ \-------/ \------/ \-----/ \-----/ \-----/  \----------/  \--|
---8-7-8---8-7-8----10-8-10---8-7-8---8-7-8---8-7-8---10-8-10------13-12-10|
000-----000------888-------777-----000-----000-----888-------101010--------|
***     ***      ***       ***     ***     ***     ***        * * *     

L
-------------------------------------------------------------------------|
-------------------------------------------------------------_-------_---|
--------________-----------__________----------_______------/ \-----/ \--|
-------/        \---------/          \--------/       \----7-5-7---8-7-8-|
------8-7-8-10-8-7------10-8-10-12-10-8------7-5-7-8-7-5-----------------|
000000------------888888---------------555555-----------777------888-----|
******            ******               ******           ***      ***   
R
---------------------------------------------------------------------------|
---------------------------------------------------------------------------|
--------________-----------__________----------_______-------_---------_---|
-------/        \---------/          \--------/       \-----/ \-------/ \--|
------8-7-8-10-8-7------10-8-10-12-10-8------7-5-7-8-7-5---8-7-8----10-8-10|
000000------------888888---------------555555-----------777------888-------|
******            ******               ******           ***    - ***   


--------------------------------------------------------------------------|
--------------------------------------------------------------------------|
--------________-----------__________----------_______-------_------------|
-------/        \---------/          \--------/       \-----/ \-------_---|
------8-7-8-10-8-7------10-8-10-12-10-8------7-5-7-8-7-5---3-5-3-----/ \--|
000000------------888888---------------555555-----------333-----222-2-3-2-|
******            ******               ******           ***     ***   


1:40

L                        B
---------------------------------------------------------------|
-----S--S--S-----S--S--S---------------------------------------|
-----P--P--P-----P--P--P---------______----------______--------|
-----H--H--H-----H--H--H--------/      \--------/      \-------|
-----5--7--8-----5--7--8------10-8-12-8-10-----8-7-10-7-8------|
-0-0---------0-0----------8-8--------------7-7-----------------|
   *           *            *                *      

---------------------------------------------------------------|
---------------------------------------------------------------|
---------------------------------______----------______--------|
--------------------------------/      \--------/      \-------|
-----5--7--8-----5--7--8------10-8-12-8-10-----8-7-10-7-8------|
-0-0---------0-0----------8-8--------------7-7-----------------|
   *           *            *                *  

L    
---------------------------------------------------------------|
---------------------------------------------------------------|
--------///-///-----///-///-------______----------______-------|
----///--5--7----///-5---7-------/      \--------/      \------|
-----8-----------8------------10-8-12-8-10-----8-7-10-7-8------|
-0-0---------0-0----------8-8--------------7-7-----------------|
   *           *            *                *  
R    
---------------------------------------------------------------|
---------------------------------------------------------------|
---------------------------------______----------______--------|
---///-///-///--///-///-///-----/      \--------/      \-------|
-----5--7--8-----5--7--8------10-8-12-8-10-----8-7-10-7-8------|
-0-0---------0-0----------8-8--------------7-7-----------------|
   *           *            *                *  
   
L    
---------------------------------------------------------------|
---------------------------------------------------------------|
--------///-///-----///-///-------______----------_________----|
----///--5--7----///-5---7-------/      \--------/         \---|
-----8-----------8------------10-8-12-8-10------12-10-13-10-12-|
-0-0---------0-0----------8-8--------------10-10---------------|
   *           *            *                  *  
R    
----------------------------------------------------------------|
----------------------------------------------------------------|
---------------------------------______------------________-----|
---///-///-///--///-///-///-----/      \----------/        \----|
-----5--7--8-----5--7--8------10-8-12-8-10------12-10-13-10-12--|
-0-0---------0-0----------8-8--------------10-10----------------|
   *           *            *                  *  
     

--------------|
--------------|
-------P------|
--------S-----|
---------\----|
-0-0-0--------|
 * * *  

2:02

---------------------------------------------------------------------------|
-------------------------6--------8----------------------------------------|
-----5---5-----------7----7------9-9--------5---5------------7--------9----|
--7---7---7--5-7-8-5---8---8-7-10---10-0-7---7---7--5-7-8-5-8-8-5-7-10-10-7|
5--8---8---8------------------------------8---8---8------7-------8---------|
---------------------------------------------------------------------------|

------------------------------------------|
----------------------------6--------8----|
--------5---5-----------7----7------9-9---|
----7----7---7--5-7-8-5---8---8-7-10---10-|
--5--8----8---8---------------------------|
------------------------------------------|


L
--------------------------------------------------|
--------------------------------------------------|
-777777777777101010109999-------------------------|
-------------------------1010101010101010-7--5----|
--------------------------------------------------|
--------------------------------------------------|
R
--------------------------------------------------------|
--------------------------------------------------------|
--------------------------------------------------------|
-8888888888881212121210101010---------------------------|
-----------------------------1212121212121212-8---7-----|
--------------------------------------------------------|

B
---------------------------------------------------------------------------|
-------------------------6--------8----------------------------------------|
-----5---5-----------7----7------9-9--------5---5------------7--------9----|
--7---7---7--5-7-8-5---8---8-7-10---10-0-7---7---7--5-7-8-5-8-8-5-7-10-10-7|
5--8---8---8------------------------------8---8---8------7-------8---------|
---------------------------------------------------------------------------|


------------------------------------------|
----------------------------6--------8----|
--------5---5-----------7----7------9-9---|
----7----7---7--5-7-8-5---8---8-7-10---10-|
--5--8----8---8---------------------------|
------------------------------------------|


L
--------------------------------------------------|
--------------------------------------------------|
-777777777777101010109999------------------^---^--|
-------------------------1010101010101010-7-8-5-7-|
--------------------------------------------------|
--------------------------------------------------|
R
--------------------------------------------------------|
--------------------------------------------------------|
--------------------------------------------------------|
-8888888888881212121210101010-------------------^----^--|
-----------------------------1212121212121212-10-12-7-8-|
--------------------------------------------------------|


2:26

L
--------------------------------------------------------^-------^------|
-------------------------------------------------------565-5---565-5---|
-----5---5-5---5-7-----5---5-5------------5---5-5---5-7---7-7-5---7-7-5|
--7---7---7--8------7---7---7----5-7---7---7---7--8--------------------|
5--8---8----------5--8---8-----8-----5--8---8--------------------------|
-----------------------------------------------------------------------|
R
------------------------------------------------------------------------|
-------------------------------------------------------^----------------|
-----5---5------------5---5--------------5---5--------575--5-----^------|
--7---7---7-5-7-8--7---7---7----------7---7---7-5-7-8----8--8-7-575-5---|
5--8---8---8-----5--8---8---8-5-7-8-5--8---8---8-------------------8-8-7|
------------------------------------------------------------------------|

L
--------------------------------------------------------^-------^------|
-------------------------------------------------------565-5---565-5---|
-----5---5-5---5-7-----5---5-5------------5---5-5---5-7---7-7-5---7-7-9|
--7---7---7--8------7---7---7----5-7---7---7---7--8--------------------|
5--8---8----------5--8---8-----8-----5--8---8--------------------------|
-----------------------------------------------------------------------|
R
------------------------------------------------------------------------|
--------------------------------------------------------^---------------|
-----5---5-------------5---5--------------5---5--------575-5-----^------|
--7---7---7--5-7-8--7---7---7----------7---7---7--5-7-8---8-8-7-575-5---|
5--8---8---8------5--8---8---8-5-7-8-5--8---8---8------------------8-8-7|
------------------------------------------------------------------------|



L PM'D
----------------------------------------------------------|
---------------------------------------------------_------|
-------------------7-7-7--------------------------/ \-----|
-8-8-8-8-8-8-8-8-8-------10-10-10-10-10-10-7-----7-8-10---|
----------------------------------------------------------|
----------------------------------------------------------|
R PM'D
---------------------------------------------------------------|
---------------------------------------------------------------|
---------------------------------------------------------------|
---------------------------------------------_-----------------|
--------------------------------------------/ \----------------|
-5-5-5-5-5-5-5-5-5-8-8-8-7-7-7-7-7-7-3-----3-5-7---------------|


2:42
L
--------------------------------------------------------^-------^------|
-------------------------------------------------------565-5---565-5---|
-----5---5-5---5-7-----5---5-5------------5---5-5---5-7---7-7-5---7-7-5|
--7---7---7--8------7---7---7----5-7---7---7---7--8--------------------|
5--8---8----------5--8---8-----8-----5--8---8--------------------------|
-----------------------------------------------------------------------|
R
------------------------------------------------------------------------|
-------------------------------------------------------^----------------|
-----5---5------------5---5--------------5---5--------575--5-----^------|
--7---7---7-5-7-8--7---7---7----------7---7---7-5-7-8----8--8-7-575-5---|
5--8---8---8-----5--8---8---8-5-7-8-5--8---8---8-------------------8-8-7|
------------------------------------------------------------------------|

L
--------------------------------------------------------^-------^------|
-------------------------------------------------------565-5---565-5---|
-----5---5-5---5-7-----5---5-5------------5---5-5---5-7---7-7-5---7-7-5|
--7---7---7--8------7---7---7----5-7---7---7---7--8--------------------|
5--8---8----------5--8---8-----8-----5--8---8--------------------------|
-----------------------------------------------------------------------|
R
------------------------------------------------------------------------|
--------------------------------------------------------^---------------|
-----5---5-------------5---5--------------5---5--------575-5-----^------|
--7---7---7--5-7-8--7---7---7----------7---7---7--5-7-8---8-8-7-575-5---|
5--8---8---8------5--8---8---8-5-7-8-5--8---8---8------------------8-8-7|
------------------------------------------------------------------------|

L PM'D
-------------------------------------------|
-------------------------------------------|
-------------------7-7-7-------------)(----|
-8-8-8-8-8-8-8-8-8-------10----7---10------|
-------------------------------------------|
-------------------------------------------|
R PM'D
-------------------------------------------|
-------------------------------------------|
-------------------------------------------|
-------------------------------------------|
--------------------------------)(---------|
-5-5-5-5-5-5-5-5-5-8-8-8-7--3--7-----------|



2:58
L 
-----------------------------------------------------------------------|
-----------------------------------------------------------------------|
------------------2------------------0------------------2--------------|
-33-3-333-3-33-33-3-22-2-222-2-22-22-2-00-0-000-0-00-00-3-22-2-222-2-2-|
-55-5-555-5-55-55---33-3-333-3-33-33---11-1-111-1-11-11---33-3-333-3-3-|
-----------------------------------------------------------------------|
 ** * *** * ** **   ** * *** * ** **   ** * *** * ** **   ** * *** * *

L                       
---------------------------------------------------------------------------|
---------------------------------------------------------------------------|
2-----------------------2------------------0------------------2------------|
-532---33-3-333-3-33-33-3-22-2-222-2-22-22-2-00-0-000-0-00-00-3-22-2-222-22|
----53-55-5-555-5-55-55---33-3-333-3-33-33---11-1-111-1-11-11---33-3-333-33|
---------------------------------------------------------------------------|
       ** * *** * ** **   ** * *** * ** **   ** * *** * ** **   ** * *** **
R
---------------------------------------------------------------------------|
---------------------------------------------------------------------------|
532---------------------2------------------0------------------2------------|
---532-33-3-333-3-33-33-3-22-2-222-2-22-22-2-00-0-000-0-00-00-3-22-2-222-22|
-------55-5-555-5-55-55---33-3-333-3-33-33---11-1-111-1-11-11---33-3-333-33|
---------------------------------------------------------------------------|
       ** * *** * ** **   ** * *** * ** **   ** * *** * ** **   ** * *** **
L                       
---------------------------------------------------------------------------|
---------------------------------------------------------------------------|
2-----------------------2------------------0------------------2------------|
-532---33-3-333-3-33-33-3-22-2-222-2-22-22-2-00-0-000-0-00-00-3-22-2-222-22|
----53-55-5-555-5-55-55---33-3-333-3-33-33---11-1-111-1-11-11---33-3-333-33|
---------------------------------------------------------------------------|
       ** * *** * ** **   ** * *** * ** **   ** * *** * ** **   ** * *** **
R
---------------------------------------------------------------------------|
---------------------------------------------------------------------------|
532---------------------2------------------0------------------2------------|
---532-33-3-333-3-33-33-3-22-2-222-2-22-22-2-00-0-000-0-00-00-3-22-2-222-22|
-------55-5-555-5-55-55---33-3-333-3-33-33---11-1-111-1-11-11---33-3-333-33|
---------------------------------------------------------------------------|
       ** * *** * ** **   ** * *** * ** **   ** * *** * ** **   ** * *** **
L                       
--------------------------------------------------------------------------|
--------------------------------------------------------------------------|
2-----------------------2------------------0------------------2-----------|
-532---33-3-333-3-33-33-3-22-2-222-2-22-22-2-00-0-000-0-00-00-3-22-2-222-2|
----53-55-5-555-5-55-55---33-3-333-3-33-33---11-1-111-1-11-11---33-3-333-3|
--------------------------------------------------------------------------|
       ** * *** * ** **   ** * *** * ** **   ** * *** * ** **   ** * *** * 
R
--------------------------------------------------------------------------|
--------------------------------------------------------------------------|
532---------------------2------------------0------------------2-----------|
---532-33-3-333-3-33-33-3-22-2-222-2-22-22-2-00-0-000-0-00-00-3-22-2-222-2|
-------55-5-555-5-55-55---33-3-333-3-33-33---11-1-111-1-11-11---33-3-333-3|
--------------------------------------------------------------------------|
       ** * *** * ** **   ** * *** * ** **   ** * *** * ** **   ** * *** * 

3:35
R continues

L
---------8---------------8--------------5-------6-5-----5---------|
---5-6-5---5-6-5---5-6-5---5-6-5--5-6-8---8-6-5-----8-6---8-6-5---|
-7---------------7---------------5--------------------------------|
------------------------------------------------------------------|
------------------------------------------------------------------|
------------------------------------------------------------------|


------------------------------------------------------------------------|
---------8---------------8-----------------10--------11-10-----10-------|
--7-9-10--10-9-7--7-9-10--10-9-7---9-10-12---12-10-9------12-10--12-10-9|
8---------------8---------------10--------------------------------------|
------------------------------------------------------------------------|
------------------------------------------------------------------------|


3:45
---------8---------------8--------------5-------6-5-----5---------|
---5-6-5---5-6-5---5-6-5---5-6-5--5-6-8---8-6-5-----8-6---8-6-5---|
-7---------------7---------------5--------------------------------|
------------------------------------------------------------------|
------------------------------------------------------------------|
------------------------------------------------------------------|


------------------------------------------------------------|
-------8---------------8-------tr~~~~-tr~~~~-tr~~~~-tr~~~~--|
-7-9-10-10-9-7--7-9-10--10-9-7-57-----79-----910----1012----|
8-------------8---------------------------------------------|
------------------------------------------------------------|
------------------------------------------------------------|

               __                            ___
  ^           /  \     ^                    /   \     ^
13-10-------10-13-10-13-10----------------12--15-12-13-12--12----|
----11-----11------------11------11-----13---------------13--13--|
-----10---10--------------10--10--10--12-----------------------12|
------12-12----------------12--12--1214--------------------------|
-------13-------------------13-----------------------------------|
-----------------------------------------------------------------|
      __
     /  \
---12-13-12-17-13-12-13-12------------^-----------^-----------^---20-18|
--13------------------------13-13/15-13-15-15/17-15-17-17/18-17-18-----|
-12--------------------------------------------------------------------|
14---------------------------------------------------------------------|
-----------------------------------------------------------------------|
-----------------------------------------------------------------------|




-17171717-15151515-13131313-12121212------------------------------|
-------------------------------------13131313131313131313131313---|
------------------------------------------------------------------|
------------------------------------------------------------------|
------------------------------------------------------------------|
------------------------------------------------------------------|
                  __
                 /  \     _____
-----13-----13-12-13-12--/     \-----)-(---------------__________---------|
10-11--10-11-----------13-10-13-10-13-----^-----)()(--/          \--------|
----------------------------------------10-12-12----1012101210121012-9~~--|
------------------------------------------------------------------------10|
--------------------------------------------------------------------------|
--------------------------------------------------------------------------|


---------------------------------------________-------|
--------------------------------------/        \------|
-------10-------12-------14---17-15-14151415141514----|
-10/12----12/14----14/15---15-------------------------|
------------------------------------------------------|
------------------------------------------------------|


------------------------------------------------------------------|
-------------------------------------__------_--------------------|
------------------------------------/  \----/ \-------------------|
-15\14-15-17-15-14-------15-14-12-10-12-10-107107/12~~~~~~~-------|
-------------------15-13------------------------------------------|
------------------------------------------------------------------|


3:55-end
R

----------------------------------------------|------|
----------------------------------------------|------|
----------------------------------5-3-2-------|------|
-00-0-000-0---000---22-2-222-2----------5-3-2-|-3----|
-11-1-111-1---111---33-3-333-3---3------------|-5----|
----------------------------------------------|------|
 ** * *** *   ***   ** * *** *

            
            
Suggest correction
Creating personal tab
Creating personal tab
You can edit any tab online and save it as your Personal.

You can edit, replace or remove any tab part or add personal notes – all changes will be seen only by you.

Personal tabs can be accessed anytime from any device, even offline.
Learn more »
Give kudos to tab author, rate the tab!
1 2 3 4 5
comments
print report bad tab
guest
You may want to rate the tab now too:
select rating
Wanna post a correction for this tab? Suggest correction