Oops, an error
Loading. Please wait.

Shes Gone Tab

794 views 3 this week
no commentswrite comment
1 2 3 4 5
please rate
add to favorites
launch autoscroll
font size
0
reset
how to read this tab
guitar tuner
Autoscroll
slow
fast
+/-
esc
set tempo
stop
Help us to improve Ultimate-Guitar.com Take our survey!
×
Author
Difficulty
Beanboy 325
novice
SONG - She's Gone
ALBUM - Friction
ARTIST - Coney Hatch

URL - http://www.heavyharmonies.com/cgi-bin/band.cgi?BandNum=659

Tabbed by Beanboy - enjoy!



Intro (clean - Gtr2)

e|----------------------------------------------------------------|
B|----------------------------------------------------------------|
G|----8-----9----(x6)-9-8-9-8-9-8---------------------------------|
D|------6-----6-------9-9-9-9-9-9---------------------------------|
A|--4-----4-------------------------------------------------------|
E|----------------------------------------------------------------|

Intro (dist - Gtr1)

e|----------------------------------------------------------------|
B|----------------------------------------------------------------|
G|--------6-----4-------------------------------------------------|
D|-7------6--7--4-------------------------------------------------|
A|-7------4--7--2-------------------------------------------------|
E|-5---------5----------------------------------------------------|


Verse

e|----------------------------------------------------------------------|
B|----------------------------------------------------------------------|
G|----------------------------------------------------------------------|
D|-6---8-9-------8-9-----------4--8-9---4-6---8-9-------8-9-----------4-|
A|-4---6-7---7---6-7---9-------2--6-7---2-4---6-7---7---6-7---9-------2-|
E|-----------5---------5---0-2--------------------5---------5---0-2-----|


Pre-chorus

e|----------------------------------------------------------------|
B|----------------------------------------------------------------|
G|-6---4---2-------6---4---2--------------------------------------|
D|-6---4---2-------6---4---2--------------------------------------|
A|-4---2---0-------4---2---0--------------------------------------|
E|----------------------------------------------------------------|


Chorus

e|----------------------------------------------------------------|
B|----------------------------------------------------------------|
G|----.--sl---.---2------.--sl---.---2----------------------------|
D|-4--4-4--6--6-6-2---4--4-4--6--6-6-2----------------------------|
A|-2--2-2--4--4-4-0---2--2-2--4--4-4-0----------------------------|
E|----------------------------------------------------------------|


Break

e|------------------------------|
B|------------------------------|
G|------------------------------|
D|-6--2--4----------------------|
A|-4--0--2----------------------|
E|------------------------------|


Solo1 (over Break)

e|------------------------------|
B|------------------------------|
G|-----8-9-----6-8-9-9-8--------|
D|---6-------7-------9-9--------|
A|-4-------4--------------------|
E|------------------------------|


Verse
Pre-chorus
Chorus


Break 2 (Gtr1&2)

e|--------------------------------------------------------------|
B|--------------------------------------------------------------|
G|------6-------4-2---(x3)---4----------------------------------|
D|----6---6---4---2----------4----------------------------------|
A|--4-------2-----0----------2----------------------------------|
E|--------------------------------------------------------------|



M8 (clean - Gtr2)

e|--------------------|  -------4-|  ---------------------------|
B|--------------------|  -------5-|  ---------------------------|
G|----8-----9----(x6)-|  -----6-6-|  -----8-----9----(x4)-------|
D|------6-----6-------|  ---6-----|  -------6-----6-------------|
A|--4-----4-----------|  -4-------|  ---4-----4-----------------|
E|--------------------|  ---------|  ---------------------------|

M8 (dist - Gtr1)

e|--------------------------------------------------------------|
B|------------------------------------.-.-.---------------------|
G|--6-----2-----6-----2---------------2-4-6-6----2--------------|
D|--6-----2-----6-----2---------------2-4-6-6----2--------------|
A|--4-----0-----4-----0---------------0-2-4-4----0--cres--------|
E|--------------------------------------------------------------|


Solo

e|--------------------------------------------------------------|
B|--------------------------------------------------------------|
G|--6--------------(x4)-----------------------------------------|
D|--6-9---------7-----------------------------------------------|
A|--4-9-6-7-----7-----------------------------------------------|
E|----7-----4-5-5-------5-4-2-0---------------------------------|



Chorus

e|--------------------------------------------------------------|
B|--------------------------------------------------------------|
G|----.--sl---.---2------.--sl---.------------------------------|
D|-4--4-4--6--6-6-2---4--4-4--6--6-6----------------------------|
A|-2--2-2--4--4-4-0---2--2-2--4--4-4----------------.-----------|
E|-----------------------------------5-4-2-0--5-4-2-0-----------|


Chorus (outro)

e|--------------------------------------------------------------|
B|--------------------------------------------------------------|
G|----.--sl---.---2------.--sl---.---2--------------------------|x2
D|-4--4-4--6--6-6-2---4--4-4--6--6-6-2--------------------------|
A|-2--2-2--4--4-4-0---2--2-2--4--4-4-0--------------------------|
E|--------------------------------------------------------------|

e|--------------------------------------------------------------|
B|--------------------------------------------------------------|
G|----.--sl---.---2------.--sl---.------------------------------|
D|-4--4-4--6--6-6-2---4--4-4--6--6-6----------------------------|
A|-2--2-2--4--4-4-0---2--2-2--4--4-4----------------.-----------|
E|-----------------------------------5-4-2-0--5-4-2-0-----------|


Key
----
.    = staccato
sl   = slide
cres = crescendo


Suggest correction new What's this?
You can suggest a correction to this tab. Community and Mods will review your correction and vote to approve or reject it.
comments
We did not receive enough feedback on this tab! Please rate:
print report bad tab
1 2 3 4 5
guest
You may want to rate the tab now too:
select rating
Please do not post tabs as comments. Select "correction" instead!