Oops, an error
Loading. Please wait.

Mighty And Superior bass

472 views 3 this week
2 commentsread comments
1 2 3 4 5
3 more votes to show rating
add to favorites
×
Save as Personal and add changes to this tab that will be seen only by you. Learn more ›
×
You can save this tab as Personal to edit and correct it or add notes. All changes will be seen only by you. Learn more »
launch autoscroll
font size
0
reset
guitar tuner
edit
Autoscroll
slow
fast
+/-
esc
set tempo
stop
Author
Difficulty
First tab, constructive criticism would be nice, I'll fix if need be.
Pretty easy tab, You should know the order to play it in, have fun!

Tuning: EADG (Standard)

-INTRO-
G--------------------|
D--------------------|
A-2/7~10-9-7-3~2 x10-|
E--------------------|

-INTRO PART 2_
G:-
D:-
A:7~x3
E:-

-VERSE PART 1-
G:-------------------------------|
D:-------------------------------|
A:7-77-77-10-9-7-----------------|
E:--------------8-88-88-7-77-77--| x6

-VERSE PART 2-
G:--------------------------------------------------------------------|
D:--------------------------------------------------------------------|
A:------------8888888877777777----------------------------------------|
E:555555555555----------------- x4 (at the end of last play, play 5-7 on A three times, the timing will be obvious)

-INTERLUDE THING_
G:-----------------------------|
D:-----------------------------|
A:-----0~---3~---5~---7~-------|
E:0~---------------------------| x4

-INTERLUDE PART 2_
G:------------------------|
D:------------------------|
A:------------------------|
E:000000000000555555555555 (Or 0s on A) x18

Finish with Verse Part 1 five times.

Again, if anything needs fixing, let me know!

            
            
Suggest correction
Creating personal tab
Creating personal tab
You can edit any tab online and save it as your Personal.

You can edit, replace or remove any tab part or add personal notes – all changes will be seen only by you.

Personal tabs can be accessed anytime from any device, even offline.
Learn more »
Give kudos to tab author, rate the tab!
1 2 3 4 5
comments
print report bad tab
2 comments total.
0 reply
Swaffle 32 Dec 16, 2013 10:42 AM

I forgot the add the "You're wrong!" Bit between the end of verse part to and the Interlude thing, so here it is, it's really easy, and the timing should be pretty simple so I shouldn't have to explain it.

G-------------------
D-------------------
A-5-7--5-7--5-7~~~~~
E-------------------

0 reply
Swaffle 32 Feb 22, 2014 02:30 PM

oh yup, also, intro, it's played on the A string, not E, sorry.

guest
You may want to rate the tab now too:
select rating
Wanna post a correction for this tab? Suggest correction