Oops, an error
Loading. Please wait.

Interminable tab

2 views 1 this week
no commentswrite comment
1 2 3 4 5
3 more votes to show rating
add to favorites
×
Save as Personal and add changes to this tab that will be seen only by you. Learn more ›
×
You can save this tab as Personal to edit and correct it or add notes. All changes will be seen only by you. Learn more »
launch autoscroll
font size
0
reset
how to read this tab
guitar tuner
edit
Autoscroll
slow
fast
+/-
esc
set tempo
stop
Conflicto - Interminable


Intro: se repite varias veces, es la base del solo

e|----------------------------------------------------------------------|
B|-----3------3-------3-----------3-----3--------3----------------------|
G|-------4------4-------4------------4-----4-------4--------------------|
D|---4-----4------4-------4-----4------4-----4-------4------------------|
A|-2----------------2---------2----------------2------------------------|
E|----------------------------------------------------------------------|

e|----------------------------------------------------------------------|
B|-----3------------2----------------------3------3---------------------|
G|-------4--------2---2-------------4--------4------4-------------------|
D|---4-----4----2-------2---------5---5--------4------4-----------------|
A|-2----------0-----------2-----5-------5-------------------------------|
E|----------------------------3-----------------------------------------|


solo 1:


e|----------------------------------------------------------------------|
B|-5b6-5-5-------5-------------5-5b6-5---5-----5b6-5-5--------5-7-8-----|
G|---------7---7---7-4---2/4-7---------7---7------------7---7-----------|
D|----------------------------------------------------------------------|
A|----------------------------------------------------------------------|
E|----------------------------------------------------------------------|


e|----------------------------------------------------------------------|
B|-8-7-5------------------------------5b6-5-------------------5-7-8-10--|
G|-------7-4---4-2-4-7-4-2-4------4-7-------7-4-7-4--4-2-4-7------------|
D|------------------------------7---------------------------------------|
A|----------------------------------------------------------------------|
E|----------------------------------------------------------------------|

e|-7--------------------------------------------------------------------|
B|---10-8-7-------------------------------------------------------------|
G|----------9-7---7-9b10------------------------------------------------|
D|--------------9-------------------------------------------------------|
A|----------------------------------------------------------------------|
E|----------------------------------------------------------------------|

(el arpegio es más o meno así, pero fijense bien.
 es complicado transcribirlo
tal cual es, pero si lo escuchan se dan cuenta fácil,
las notas son Bm, A y G)

   Bm            A               G                     G G G

e|-2-----2-------0------0--------3------------3-----3--3-3-3------------|
B|-3-3-----3-----2--2-----2------3-----3--------3------3-3-3------------|
G|-4---4-----4---2----2-----2----4-4-----4--------4----4-4-4------------|
D|-4----------4--2------------2--5---5-----5-----------5-5-5------------|
A|-2-------------0---------------5---------------------5-5-5------------|
E|-------------------------------3---------------------3-3-3------------|

(Más o menos la parte de la letra corresponde con la nota que se toca)

  no me       importa que no   vuelvas,
  sé que        no   es para quedarte...
  no me       importa que     regreses
  si        vuelves para    marcharte

  no me       digas que te    olvide
  que no       se      como olvidarte,
  que me     encuentro tan   perdido
  que       sólo pienso en   buscarte

                                                la 2º vuelta agrega esto
e|---------------------------------------------||-7-7-7-7-|
B|---------------------------------------------||-7-7-7-7-|
G|---------------------------------------------||---------|
D|-5--5-------7-7-------------9-9---9-9-9-9----||---------|
A|-5--5-------7-7-------------9-9---9-9-9-9----||---------|
E|-3--3-------5-5-------------7-7---7-7-7-7----||---------|

   tus      engaños        verdugos de mis días fueron,
   hoy el   perdón    es el pretexto del culpable,
   el    amor no fue más    que un odio borracho de mentiras
   muerie... ndo por ti la    vida se me hace

e|------------------------------------------------------|
B|------------------------------------------------------|
G|-------4-------------5--------------9-----9----9------|
D|-5-5-----5-----7-7-----7-------9-9----9-----9----9----|
A|-5---5-----5---7---7-----7-----9--9-----9----9-----9--|
E|-3-------------5---------------7----------------------|


  interminableeeee...
  interminableeeee...

solo 2


e|---------------------------------------------------------7------------|
B|-5b6-5------------------5b6---------------------5-7-8-10---10-8-7-----|
G|-------7-4--2-4-----4-7-----7-4-7-4----4-2-4-7------------------------|
D|------------------7---------------------------------------------------|
A|----------------------------------------------------------------------|
E|----------------------------------------------------------------------|


e|----------------------------------------------------------------------|
B|-5b6-5----------------------------------------------------------------|
G|-------7-7-4-4-2-4-2-7-4----------------------------------------------|
D|----------------------------------------------------------------------|
A|----------------------------------------------------------------------|
E|----------------------------------------------------------------------|


a tu lado me hiciste sentir
diablo de mis virtudes
y ahora que tu ya no estas aquí
me siento dios de mis vicios oohhh

tus pecados fueron el mandamiento más sagrado
hoy el olvido es un recuerdo despistado...
mi miedo a caer fue solo la ilusión de mis alturas
muriendo por ti la vida se me hace interminable
interminable...


e|----------------------------------------------------------------------|
B|-3-----3------3-----2-----2-----2-------------------------------------|
G|---4-----4------4-----2-----2-----2--4-----4------4---4-----4-----4---|
D|-----4-----4------------2-----2--------5-----5------5---5-----5-----5-|X2
A|-----------------------------------------5-----5----------5-----5-----|
E|----------------------------------------------------------------------|


e|-----------------------------------------------|
B|-----------------------------------------------|
G|-4---4-------2---2-----------------------------|
D|-4---4-------2---2--------5--5--------5-5------|
A|-2---2-------0---0--------5--5--------5-5------|
E|--------------------------3--3--------3-3------|


       soplaré MI      melodía A las estrellas
     y A LA   luna      donaré todas mis letras
     y  que    la noche  mas oscura
     ellas    hagan   la  canción de mis tormentas

    mientras tanto  yo,
     borraré   de mi      leyenda
    todo     nombre que recuerde a la princesa de este cuento
                                            interminable...


e|---------------------------------------------|
B|---------------------------------------------|
G|---------------------------------------------|
D|-5--5-------7-7-------------9-9---9-9-9-9----|
A|-5--5-------7-7-------------9-9---9-9-9-9----|
E|-3--3-------5-5-------------7-7---7-7-7-7----|

   interminableeeeeeee


solo 3

e|--------------------------------------------------------------------|
B|-5b6-5---------------------5b6-3---------------5b6------------------|
G|--------7-4-7-4-------4-7--------4---2-4-2-4-7------7-4-7-4---------|
D|-----------------5-7------------------------------------------------|
A|--------------------------------------------------------------------|
E|--------------------------------------------------------------------|


e|-------------------7------------------------------------------------|
B|----------5-7-8-10---10-8-7-5-3b4-3b4-5b6-5b6---5b6-5-3----5b6-5-3--|
G|------4-7-----------------------------------------------4----------4|
D|--5-7---------------------------------------------------------------|
A|--------------------------------------------------------------------|
E|--------------------------------------------------------------------|

e|---------------------------------------------------------------5-7--|
B|-5b6-5-3-------3-5-7-8-7-5--5b6--5-3-5-3---------------3-5-7-8------|
G|---------4-2-4---------------------------4-2-4-2---2-4--------------|
D|--------------------------------------------------------------------|
A|--------------------------------------------------------------------|
E|--------------------------------------------------------------------|


e|--5---------------------------------------------|
B|-----8-7-5----------3~~~------------------------|
G|------------7-4-2-4------4/0--------------------|
D|------------------------------------------------|
A|------------------------------------------------|
E|------------------------------------------------|


NOTA: puede ser que alguno de los solos falten notas
es lo que mi capacidad auditiva me permitió sacar :)
saludos a la gente de Conflicto, espero que les guste la tablatura

            
            
Suggest correction
Creating personal tab
Creating personal tab
You can edit any tab online and save it as your Personal.

You can edit, replace or remove any tab part or add personal notes – all changes will be seen only by you.

Personal tabs can be accessed anytime from any device, even offline.
Learn more »
Give kudos to tab author, rate the tab!
1 2 3 4 5
comments
print report bad tab
guest
Wanna post a correction for this tab? Suggest correction