Oops, an error
Loading. Please wait.

El Errante tab

26 views 1 this week
no commentswrite comment
1 2 3 4 5
3 more votes to show rating
add to favorites
×
Save as Personal and add changes to this tab that will be seen only by you. Learn more ›
×
You can save this tab as Personal to edit and correct it or add notes. All changes will be seen only by you. Learn more »
launch autoscroll
font size
0
reset
how to read this tab
guitar tuner
edit
Autoscroll
slow
fast
+/-
esc
set tempo
stop
Este es un tema instrumental, por lo que solo anotaré las
intervenciones de la guitarra en el mismo.

Intro: VI 0-3-5

A)
e------------------5-3-5-3--------------------| X2
B--------------------------5/3-3-3-1-3-1------|
G--------2-0-2-0-------------------------2h0--|
D----------------2----------------------------|
A---------------------------------------------|
E--0-3-5--------------------------------------|

e------------------5-3-5-3---------------------------|
B--------------------------5/3-3-3-1-3-1-------------|
G--------2-0-2-0-------------------------2h0---------|
D----------------2-----------------------------------|
A----------------------------------------------------|
E--0-3-5--------------------------------------3-3-3--|

B) entra la flauta...

  LAm LAm7  LAm6  LAm5   LAm X8
e--5---------------------5--|
B--5--8-----7-----6------5--|
G--5----5-----5-----5----5--|
D--7------7-----7-----7--7--|
A--7---------------------7--|
E--5--5-----5-----5------5--|

C) Sigue la Flauta...

Rasgueo en Lam

Repite A
Repite B
Repite C
Repite A

D) Entran voces
  LAm   LAm7  LAm6  LAm5    X8
e--0-----3-----2-----1------|
B----1-----1-----1-----1----|
G------2-----2-----2-----2--|
D---------------------------|
A--0-----0-----0-----0------|
E---------------------------|

            
            
Suggest correction
Creating personal tab
Creating personal tab
You can edit any tab online and save it as your Personal.

You can edit, replace or remove any tab part or add personal notes – all changes will be seen only by you.

Personal tabs can be accessed anytime from any device, even offline.
Learn more »
Give kudos to tab author, rate the tab!
1 2 3 4 5
comments
print report bad tab
guest
Wanna post a correction for this tab? Suggest correction