Oops, an error
Loading. Please wait.

Soledad tab

126 views 1 this week
no commentswrite comment
1 2 3 4 5
3 more votes to show rating
add to favorites
×
Save as Personal and add changes to this tab that will be seen only by you. Learn more ›
×
You can save this tab as Personal to edit and correct it or add notes. All changes will be seen only by you. Learn more »
launch autoscroll
font size
0
reset
how to read this tab
guitar tuner
edit
Autoscroll
slow
fast
+/-
esc
set tempo
stop
SALE PS COMPAS AQII LES DEJO ESTA ROLA DE MAR AZUL
ESPERO Y LES GUSTE . EL INTERMEDIO ES LO MISMO QUE EL INTRO
Y LO MISMO ES EL FINAL


INTRO:

E.-10-9--10-7----7-7---10-9--10-7---------9--9--9---10-9--10--9--9----5
B.-12-10-12-8---8--8---12-10-12-8---7-8-10---10-10--12-10-12--10-10--7-
G.-------------7-------------------9-----------------------------------
D.---------------------------------------------------------------------
A.---------------------------------------------------------------------
E.---------------------------------------------------------------------

E.---5--5----10--10-10-10--9---12-12--10-9---12-12--10-9
B.--7---7--12----12-12-12--10--14-14--12-10--14-14--12-10
G.-7-----------------------------------------------------
D.-------------------------------------------------------
A.-------------------------------------------------------
E.-------------------------------------------------------

E.-7-5-7-5--9--7-5---5-7-5--5-
B.-8-7-8-7--10-8-7--7------7--
G.-----------------7---------7
D.----------------------------
A.----------------------------
E.----------------------------

          D              G
DESDE EL DIA QUE TU TE FUISTE
  A7                     D
SOLEDAD ESTOY LLORANDO PORTI
                       G
VOY SUFRIENDO Y VOY LLORANDO
          A7                   D
POR LOS GOLPES QUE ME DABA EL AMOR
              G
VIRGENCITA MILAGROSA
        A7                 D
TU QUE SABES DONDE ESTA SOLEDAD
                    G
DILE QUE PRONTO MI VIDA
        A7        D
SIN SU AMOR SE ACABARA
          G
CUANDO ESCUCHES MI CANCION

QUIERO RECUERDES
        A7                      D
DE LOS BESOS Y CARICIAS QUE TE DABA
                                     A7
TAMBIEN QUIERO QUE RECUERDES DE LOS DIAS
          G                D
QUE A MI LADO FELICES TU PASABAS
       G
ESTE POBRE CORAZON ESTA SANGRANDO
          A7
PUES LA HERIDA QUE LE HICISTE
        D
ES MUY GRANDE
                                A7
SI ALGUN DIA PIENSAS REGRESAR A MI
      G                       D
SOLO MUERTO DEJARE YO DE ESPERARTE

            
            
Suggest correction
Creating personal tab
Creating personal tab
You can edit any tab online and save it as your Personal.

You can edit, replace or remove any tab part or add personal notes – all changes will be seen only by you.

Personal tabs can be accessed anytime from any device, even offline.
Learn more »
Give kudos to tab author, rate the tab!
1 2 3 4 5
comments
print report bad tab
guest
Wanna post a correction for this tab? Suggest correction