Oops, an error
Loading. Please wait.

Hoy En Tu Dia tab

80 views 1 this week
no commentswrite comment
1 2 3 4 5
3 more votes to show rating
add to favorites
×
Save as Personal and add changes to this tab that will be seen only by you. Learn more ›
×
You can save this tab as Personal to edit and correct it or add notes. All changes will be seen only by you. Learn more »
launch autoscroll
font size
0
reset
how to read this tab
guitar tuner
edit
Autoscroll
slow
fast
+/-
esc
set tempo
stop
INTRO:
   C                                Em
e|-5-3-5-3-5-3---1-1---------------5-3-5-3-5-3---1-1-------|
b|---------------------5-5---1-------------------------5-5-|
g|---------------------------------------------------------|
d|---------------------------------------------------------|
a|---------------------------------------------------------|
E|---------------------------------------------------------|

                                                  X 2

  Dm                               G
e|-7-5-7-5-7-5---3-3---------------7-5-7-5-7-5---3-3-------|
b|---------------------6-6---3-------------------------6-6-|
g|---------------------------------------------------------|
d|---------------------------------------------------------|
a|---------------------------------------------------------|
E|---------------------------------------------------------|

       C               Em
   Podría cruzar un lejano desierto
       Dm                            G
   Buscando si eres hada y poderte robar
              Am
   Mil y una noches para ti,
                   Em
   Cuentos nuevos para ti al dormir;
          F
   Y te lleven a un mundo de sueños
                 G
   Que te hagan feliz.

       C                 Em
   Podría estudiar para ser astronauta
      Dm                           G
   Traerte de regalo una piedra lunar;
               Am
   Tambien podría navegar,
              Em
   Incansablemente hasta encontrar
         F
   el tesoro mas grande escondido
                    G
   en el fondo del mar.


    CORO:
              C
   Pero llegaria tarde a tu cumpleaños
            Em
   y no podria perdonármelo
              Dm
   Prefiero ahora darte en un abrazo
              G
   Lo que me cabe aqui en el corazón.
            C
   Es el deseo de que encuentres siempre
           Em
   A cada paso l a  felicidad
               Dm
   Y que a tu vida llegue en un instante
             G
   Todo lo que tu quieras alcanzar.


   C                                Em
e|-5-3-5-3-5-3---1-1---------------5-3-5-3-5-3---1-1-------|
b|---------------------5-5---1-------------------------5-5-|
g|---------------------------------------------------------|
d|---------------------------------------------------------|
a|---------------------------------------------------------|
E|---------------------------------------------------------|

                                                  X 2

  Dm                               G
e|-7-5-7-5-7-5---3-3---------------7-5-7-5-7-5---3-3-------|
b|---------------------6-6---3-------------------------6-6-|
g|---------------------------------------------------------|
d|---------------------------------------------------------|
a|---------------------------------------------------------|
E|---------------------------------------------------------|


       C                  Em
   Podria buscarte entre las mariposas
      Dm                                  G
   Alguna que llevara entre las alas tu nombre
               Am
   Tambien podria revivir
               Em
   Las hojas muertas de un jardín
        F
   Y hacerte una alfombra de rosas
         G
   Que huelan a ti.


    CORO:
              C
   Pero llegaria tarde a tu cumpleaños
            Em
   y no podria perdonármelo
              Dm
   Prefiero ahora darte en un abrazo
              G
   Lo que me cabe aqui en el corazón.
            C
   Es el deseo de que encuentres siempre
           Em
   A cada paso l a  felicidad
               Dm
   Y que a tu vida llegue en un instante
             G
   Todo lo que tu quieras alcanzar.


              C                           Riff 1
   Pero llegaria tarde a tu cumpleaños...
              Dm                          Riff 2
   Prefiero ahora darte en un abrazo...
            C
   Es el deseo de que encuentres siempre
           Em
   A cada paso l a  felicidad
               Dm
   Y que a tu vida llegue en un instante
             G
   Todo lo que tu quieras alcanzar.

     Am              F               C
   Felicidades, hoy en tu dia... Con amor.


Estos riff se intercalan en el final

Riff 1
  Em
e|- 5-3-5-3-5-3---1-1------|
b|---------------------5-5-|
g|-------------------------|
d|-------------------------|
a|-------------------------|
E|-------------------------|

Riff 2
  G
e|-7-5-7-5-7-5---3-3-------|
b|---------------------6-6-|
g|-------------------------|
d--------------------------|
a|-------------------------|
E|-------------------------|

Pues ahí esta, es muy buena cancion,
espero y sea de su agrado esta transcripcion.
Dudas? contactenme: stinf_rokes@  :?DzL??

            
            
Suggest correction
Creating personal tab
Creating personal tab
You can edit any tab online and save it as your Personal.

You can edit, replace or remove any tab part or add personal notes – all changes will be seen only by you.

Personal tabs can be accessed anytime from any device, even offline.
Learn more »
Give kudos to tab author, rate the tab!
1 2 3 4 5
comments
print report bad tab
guest
Wanna post a correction for this tab? Suggest correction