Oops, an error
Loading. Please wait.

Necesito Decirte tab

223 views 1 this week
no commentswrite comment
1 2 3 4 5
3 more votes to show rating
add to favorites
×
Save as Personal and add changes to this tab that will be seen only by you. Learn more ›
×
You can save this tab as Personal to edit and correct it or add notes. All changes will be seen only by you. Learn more »
launch autoscroll
font size
0
reset
how to read this tab
guitar tuner
edit
Autoscroll
slow
fast
+/-
esc
set tempo
stop
HOLA DE NUEVO. ESTA ES MI PRIMERA CANCION DE CONJUNTO PRIMAVERA.
ESTA VERSION CONTIENE EL INTRO Y EL INTERLUDIO DE SAXOFON.

A MANERA DE RECOMENDACION USEN UN CAPO EN EL PRIMER TRASTE PARA
QUE SE LES FACILITE Y OJO CON LOS ACORDES NO SE DEBEN ALTERAR
(AL COLOCAR EL CAPO SE DEBEN DE CONSERVAR LOS ACORDES).

CUALQUIER DUDA, COMENTARIO, CHISME, FIESTA, CHISTE O CUALQUIER
COSA AQUI ESTA MI CORREO.

                ario-virgo91@

Y SI LES AGRADA NO OLVIDEN PONERLE UN 10.

DISFRUTENLA.


Intro:

    Bb    Gm          Eb     F
e|--------------------3---3-------------------------------|
B|---3----------------------6p4---------------------------|
G|--------5-3-5p3-----------------------------------------|
D|----------------5---------------------------------------|
A|--------------------------------------------------------|
E|--------------------------------------------------------|

           Bb              Gm          Eb    F
e|---------------------------------------3---6-5----------|
B|-------3-4-3-------3-4-3-------3-4-3--------------------|
G|---3-5---------3-5---------3-5--------------------------|
D|--------------------------------------------------------|
A|--------------------------------------------------------|
E|--------------------------------------------------------|

           Bb              Gm          Eb    F
e|-------6-8-6-------6-8-6-------6-8-6---3---6-5----------|
B|---6-8---------6-8---------6-8--------------------------|
G|--------------------------------------------------------|
D|--------------------------------------------------------|
A|--------------------------------------------------------|
E|--------------------------------------------------------|


    Bb   Gm
  Cariño
Eb   F       Bb   Gm
  necesito decirte
Eb        F             Bb    Gm
  que mi mundo es muy triste
                      Eb        F
  desde que tu te has ido amor
              Bb    Gm    Eb   F
  ya no se vivir.

    Bb        Gm
  Que extraño
Eb    F           Bb   Gm
  tu mirar tu sonrisa
Eb        F       Bb     Gm
  y todas esas caricias
                   Eb          F
  que le diste a mi alma amor
              Bb   Gm   Eb   F
  con el corazón.

    Bb     Gm
Necesito decirte
     Eb           F
que no voy a olvidarte
            Bb
aunque te fuiste
    Gm              Eb        F
porque solo soy de ti y para ti.

    Bb     Gm
Necesito decirte
    Eb             F             Bb
que te estare esperando por si existe
     Gm      Eb        F
una posibilidad de volver
          Bb      Gm    Eb   F
ya sabes donde estoy.


Interludio:

    Bb    Gm          Eb     F
e|--------------------3---3-------------------------------|
B|---3----------------------6p4---------------------------|
G|--------5-3-5p3-----------------------------------------|
D|----------------5---------------------------------------|
A|--------------------------------------------------------|
E|--------------------------------------------------------|

           Bb              Gm          Eb    F
e|---------------------------------------3---6-5----------|
B|-------3-4-3-------3-4-3-------3-4-3--------------------|
G|---3-5---------3-5---------3-5--------------------------|
D|--------------------------------------------------------|
A|--------------------------------------------------------|
E|--------------------------------------------------------|

           Bb              Gm          Eb    F
e|-------6-8-6-------6-8-6-------6-8-6---3---6-5----------|
B|---6-8---------6-8---------6-8--------------------------|
G|--------------------------------------------------------|
D|--------------------------------------------------------|
A|--------------------------------------------------------|
E|--------------------------------------------------------|


      Bb   Gm
  Me diste
Eb     F           Bb    Gm
  un adios que me duele
Eb        F              Bb    Gm
  no hay nada que me consuele
                  Eb     F
  te llevaste contigo amor
            Bb   Gm   Eb   F
  mi felicidad.


  Bb     Gm
Necesito decirte
     Eb           F
que no voy a olvidarte
            Bb
aunque te fuiste
    Gm              Eb        F
porque solo soy de ti y para ti.

     Bb     Gm
Necesito decirte
    Eb             F             Bb
que te estare esperando por si existe
     Gm      Eb        F
una posibilidad de volver
          Bb      Gm
ya sabes dónde estoy.


   Eb    F
Oh si mi amor
           Bb     Gm
aquí te esperare
    Eb   F
oh si mi amor.

      Bb          Gm
Si pudieras regresar conmigo
 Eb        F       Bb
ven no tardes yo te amo
   Gm           Eb   F    Bb    Gm
no te olvido, ven.

    Eb      F
Oh si mi amor
           Bb     Gm    Eb    F
aqui te esperare
           Bb
aqui te esperare.


POR SI NO RECUERDAN LOS ACORDES AQUI SE LOS DEJO.

     Bb   Gm   Eb   F
e:----1----3----3----1---
B:----3----3----4----1---
G:----3----3----3----2---
D:----3----5----1----3---
A:----1----5----1----3---
E:----1----3----x----1---

                                                  DICIEMBRE DEL 2010
Suggest correction
Creating personal tab
Creating personal tab
You can edit any tab online and save it as your Personal.

You can edit, replace or remove any tab part or add personal notes – all changes will be seen only by you.

Personal tabs can be accessed anytime from any device, even offline.
Learn more »
Give kudos to tab author, rate the tab!
1 2 3 4 5
comments
print report bad tab
guest
Wanna post a correction for this tab? Suggest correction