Oops, an error
Loading. Please wait.

Quiero Estar Loco tab

40 views 1 this week
no commentswrite comment
1 2 3 4 5
3 more votes to show rating
add to favorites
×
Save as Personal and add changes to this tab that will be seen only by you. Learn more ›
×
You can save this tab as Personal to edit and correct it or add notes. All changes will be seen only by you. Learn more »
launch autoscroll
font size
0
reset
how to read this tab
guitar tuner
edit
Autoscroll
slow
fast
+/-
esc
set tempo
stop
Q PEX Rza les mando ste tab q sta completo son todo y el
intro, m l apidieron completa y aki sta, es una rola q
m late un buen y ps c la ddik a la niña q ya sabe kien
es camara ai c ven y dice asi:


E---------------------------------------------------------
A---------------------------------------------------------
D-10----12-----------------------12-12-10-12-10-----------
G---12-9--9-12-12-12-12-10-10-9-9--------------12-12-12-12
B---------------------------------------------------------
e---------------------------------------------------------


E---------------------------------------------------------
A------------------------10-10-12-12----------------------
D----------12-12-10-12-10-----------9-9-9-10-12-12--------
G-10-10-9-9-----------------------------------------------
B---------------------------------------------------------
e---------------------------------------------------------


INICIO C G Am Gm C F G/G7
C
me dolio
      G
las mentiras que de amor
Am
tu me dijiste

Gm
deberas
C                 F
que supiste como herirme
G/G7
me duele el corazon

C
me dolio
      G          Am
cada gota de cariño falso tuyo
Gm                 C          F
mis lagrimas me rompen el orgullo
G/G7
y mi vida.
C
quiero estar loco
G                         Am
y evitar la realidad que hoy me mata
Gm              C            F
no sentir los sentimientos que taladran
G/G7
cada parte de mi ser.
C
quiero estar loco
G                        Am
y engañar esta tristesa con mil sonrisas
Gm                 C             F
que la vista se me pierda en la distancia
G/G7
y no en tu fotografia.

C
quiero estar loco oh oh oh


  INICIO C G Am Gm C F G/G7
E---------------------------------------------------------
A---------------------------------------------------------
D--------------------------------12-12-10-12-10-----------
G-----------12-12-12-12-10-10-9-9--------------12-12-12-12
B---------------------------------------------------------
e---------------------------------------------------------


E---------------------------------------------------------
A------------------------10-10-12-12----------------------
D----------12-12-10-12-10-----------9-9-9-10-12-12--------
G-10-10-9-9-----------------------------------------------
B---------------------------------------------------------
e---------------------------------------------------------


C
me dolio
      G          Am
cada gota de cariño falso tuyo
Gm                 C          F
mis lagrimas me rompen el orgullo
G/G7
y mi vida.
C
quiero estar loco
G                         Am
y evitar la realidad que hoy me mata
Gm              C            F
no sentir los sentimientos que taladran
G/G7
cada parte de mi ser.
C
quiero estar loco
G                        Am
y engañar esta tristesa con mil sonrisas
Gm                 C             F
que la vista se me pierda en la distancia
G/G7
y no en tu fotografia.

C
quiero estar loco oh oh oh

            
            
Suggest correction
Creating personal tab
Creating personal tab
You can edit any tab online and save it as your Personal.

You can edit, replace or remove any tab part or add personal notes – all changes will be seen only by you.

Personal tabs can be accessed anytime from any device, even offline.
Learn more »
Give kudos to tab author, rate the tab!
1 2 3 4 5
comments
print report bad tab
guest
Wanna post a correction for this tab? Suggest correction