Oops, an error
Loading. Please wait.

Caramel tab

1,231 views 18 this week
1 commentread comment
1 2 3 4 5
1 last vote to show rating
add to favorites
×
Save as Personal and add changes to this tab that will be seen only by you. Learn more ›
×
You can save this tab as Personal to edit and correct it or add notes. All changes will be seen only by you. Learn more »
launch autoscroll
font size
0
reset
how to read this tab
guitar tuner
edit
Autoscroll
slow
fast
+/-
esc
set tempo
stop
Author
Difficulty
Song: Caramel
Artist: Connan Mockasin
Album: Caramel

Tabbed by: Lily R.

RIFF I
0:00-0:57
e|------------------------------------------|
B|------------------------------------------|
G|--7--8--7--5------------------5-----------|
D|---------------8--5--8--7-------8---------| x10
A|---------------------------8---------8----|
E|------------------------------------------|

The riff slightly changes at 0:58 seconds(also repeated in the outro):

RIFF II
0:58-1:07
e|------------------------------------------|
B|------------------------------------------|
G|---------7--8--7--5----------5--5---------|
D|------8---------------8------------8------| 
A|---8-----------------------8--------------|
E|------------------------------------------|


RIFF I
1:08-1:42
e|------------------------------------------|
B|------------------------------------------|
G|--7--8--7--5------------------5-----------|
D|---------------8--5--8--7-------8---------| x6
A|---------------------------8---------8----|
E|------------------------------------------|


RIFF II
1:43-1:54
e|------------------------------------------|
B|------------------------------------------|
G|---------7--8--7--5----------5--5---------|
D|------8---------------8------------8------| 
A|---8-----------------------8--------------|
E|------------------------------------------|






Suggest correction
Creating personal tab
Creating personal tab
You can edit any tab online and save it as your Personal.

You can edit, replace or remove any tab part or add personal notes – all changes will be seen only by you.

Personal tabs can be accessed anytime from any device, even offline.
Learn more »
Give kudos to tab author, rate the tab!
1 2 3 4 5
comments
print report bad tab
1 comment total.
+1 reply
marina-moritaka 21 Jun 09, 2017 10:05 PM

E - F#7 - Gm7
E - F#7 - Gm7
E - F#7- Gm7
E - F#7 - Gdim - Gm7

guest
You may want to rate the tab now too:
select rating
Wanna post a correction for this tab? Suggest correction