Oops, an error
Loading. Please wait.

Forever Dolphin Love Tab

version 1
version 1

Live

Whole song

3,110 views 15 this week
1 commentread comment
1 2 3 4 5
x 5
add to favorites
launch autoscroll
font size
0
reset
how to read this tab
guitar tuner
Autoscroll
slow
fast
+/-
esc
set tempo
stop
Help us to improve Ultimate-Guitar.com Take our survey!
×
Difficulty
novice
Connan Mockasin - Forever Dolphin Love

Taken from the Forever Dolphin Live bonus CD, sold in England

Tabbed by Nicholas Gaston

(h) Hammer On (v) Vibrato

Main riff
E|-------------------------|
B|-------------------------|
G|-------------------------|
D|---7--7--------------8-8-|
A|/9------9-8-7------------|
E|--------------10-7-------|


Transitory riff (great on bass)
E|---------------|
B|---------------|
G|---------------|
D|---9-9---------|
A|-------9-------|
E|-7-------5-5/7-|


Turnaround
E|-----------|
B|-----------|
G|-----------|
D|-----------|
A|-8--8--8-8-|
E|-----------|


Signature riff
E|----------------------------------------------------|
B|----------------------------------------------------|
G|-6-------5------5------6---8---5----5---------------|
D|---8-------8------6------7-------6----6-------------|
A|-----8-------8------8--------------6----8-----------|
E|----------------------------------------------------|

If you have any questions, or would like to help tab the Forever Dolphin Live version 
solo; please don't hesitate to email me at - nicholasgaston08@gmail.com

I would be glad to hear from you all, this is a great song and I hope you all have as 
much fun jamming with it as I do, I suggest the A# pentatonic scale for some extra riffing.
Suggest correction
comments
print report bad tab
1 comment total.
0 reply
jvfontouraj 10 Nov 26, 2015 11:16 PM

Hey man, I think the main riff its like this:


e|-------------------------|
B|-------------------------|
G|-------------------------|
D|-----6--6-----------8-8\-|
A|-6/8------8p7p6----------|
E|----------------9-6------|

guest
You may want to rate the tab now too:
select rating
Wanna post a correction for this tab? Suggest correction