Oops, an error
Loading. Please wait.

Forever Dolphin Love Tab

version 1
version 1

Live

Whole song

2,591 views 12 this week
1 commentread comment
1 2 3 4 5
accurate
x 3
add to favorites
launch autoscroll
font size
0
reset
how to read this tab
guitar tuner
Tab Pro tools
  • play this tab
  • loop segment
  • change instrument
  • show fretboard
  • metronome
×
Best way to learn
"Forever Dolphin Love"
Autoscroll
slow
fast
+/-
esc
set tempo
stop
Difficulty
novice
Connan Mockasin - Forever Dolphin Love

Taken from the Forever Dolphin Live bonus CD, sold in England

Tabbed by Nicholas Gaston

(h) Hammer On (v) Vibrato

Main riff
E|-------------------------|
B|-------------------------|
G|-------------------------|
D|---6--6-----------8--8-8-|
A|-8------8-7-7-6----------|
E|----------------6--------|


Transitory riff (great on bass)
E|---------------|
B|---------------|
G|---------------|
D|---6-----6h8h8-|
A|-8-------------|
E|-------6-------|


Turnaround
E|-----------|
B|-----------|
G|-----------|
D|-----------|
A|-8--8--8-8-|
E|-----------|


Signature riff
E|----------------------------------------------------|
B|--------------------------------------------------6-|
G|-6-------5------6------5---8v--6----5------5------5-|
D|---8-------8------7------7-------8----6------6----6-|
A|-----8-------8------8-------------------8------6----|
E|----------------------------------------------------|

If you have any questions, or would like to help tab the Forever Dolphin Live version 
solo; please don't hesitate to email me at - nicholasgaston08@gmail.com

I would be glad to hear from you all, this is a great song and I hope you all have as 
much fun jamming with it as I do, I suggest the A# pentatonic scale for some extra riffing.
comments
We did not receive enough feedback on this tab! Please rate:
print report bad tab
1 2 3 4 5
1 comment total.
0 reply
jvfontouraj wrote on November 26 2015, 11:16 pm

Hey man, I think the main riff its like this:


e|-------------------------|
B|-------------------------|
G|-------------------------|
D|-----6--6-----------8-8\-|
A|-6/8------8p7p6----------|
E|----------------9-6------|

I want to post or [tab]
guest
You may want to rate the tab now too:
select rating
Please do not post tabs as comments. Select "correction" instead!