Oops, an error
Loading. Please wait.

My Favorite Hurricane tab

79 views 1 this week
no commentswrite comment
1 2 3 4 5
3 more votes to show rating
add to favorites
×
Save as Personal and add changes to this tab that will be seen only by you. Learn more ›
×
You can save this tab as Personal to edit and correct it or add notes. All changes will be seen only by you. Learn more »
launch autoscroll
font size
0
reset
how to read this tab
guitar tuner
edit
Autoscroll
slow
fast
+/-
esc
set tempo
stop
Author
[INTRO]
E|--4-------------4------2-------------------------------------------------------------------0--------------|
B|----------2------------------------------------------2-------4-------------------------4------------2-----|
G|------2------------------------------------2-----------------------------------4----------------2--------|
D|--2------------------------------2------------------------------------4----------------------2------------|
A|-------------------------0--------------------------------------2--------------------------0--------------|
E|----------------------------------------------------------------------------------------------------------|

E|--4-------------4------2-------------------------------------------------------------------0--------------|
B|----------2------------------------------------------2-------4-------------------------4------------2-----|
G|------2------------------------------------2------------------------------------4----------------2--------|
D|--2------------------------------2------------------------------------4----------------------2------------|
A|-------------------------0--------------------------------------2--------------------------0--------------|
E|----------------------------------------------------------------------------------------------------------|

[VERSE]
[I never questioned                                                    not even once]
[Chord: E]
E|------------------------------0-------2------0-----------------------------------------0---------2-----0--|
B|----------------------0----------------------------------------------------------0------------------------|
G|----------------1-----------------------------------------------------------1-----------------------------|
D|----------------------------------------------------------------------------------------------------------|
A|----------------------------------------------------------------------------------------------------------|
E|---------0------------------------------------------------------------0-----------------------------------|

[All of the twists and turns and tumbles         of our          love]
[Chord: A]
E|------------------------------0---------------------------------------------------------------0-----------|
B|----------------------2--------------2-----------------------------------------------2--------------2-----|
G|----------------2------------------------------------2----------------------2----------------------------2|
D|----------------------------------------------------------------------------------------------------------|
A|---------0------------------------------------------------------0-----------------------------------------|
E|----------------------------------------------------------------------------------------------------------|

[So many nights, Down on my knees]
[Chord: E]
E|------------------------------0-------2------0-----------------------------------------0---------2-----0--|
B|----------------------0----------------------------------------------------------0------------------------|
G|----------------1-----------------------------------------------------------1-----------------------------|
D|----------------------------------------------------------------------------------------------------------|
A|----------------------------------------------------------------------------------------------------------|
E|---------0------------------------------------------------------------0-----------------------------------|

[Praying to God that you can learn to forgive me]
Chord: A
E|------------------------------0---------------------------------------------------------------0-----------|
B|----------------------2--------------2-----------------------------------------------2--------------2-----|
G|----------------2------------------------------------2----------------------2----------------------------2|
D|----------------------------------------------------------------------------------------------------------|
A|---------0------------------------------------------------------0-----------------------------------------|
E|----------------------------------------------------------------------------------------------------------|
[And under-------------                                            neath the]

[Chord: B                                                          A]
E|------------------------------2---------------------------------------------------------------0-----------|
B|---------------------4--------------4-----------------------------------------------2--------------2------|
G|----------------4----------------------------------------------------------2----------------------------2-|
D|----------------------------------------------------------------------------------------------------------|
A|---------2--------------------------------------------2----------0----------------------------------------|
E|----------------------------------------------------------------------------------------------------------|

[Pain]
[Chord: E]
E|------------------------------0-------2------0-----------------------------------------0---------2-----0--|
B|----------------------0----------------------------------------------------------0------------------------|
G|----------------1-----------------------------------------------------------1-----------------------------|
D|----------------------------------------------------------------------------------------------------------|
A|----------------------------------------------------------------------------------------------------------|
E|---------0------------------------------------------------------------0-----------------------------------|

[My fa---------vorite hurri]
[Chord: B                                                          A
E|------------------------------2---------------------------------------------------------------0-----------|
B|---------------------4--------------4-----------------------------------------------2--------------2------|
G|----------------4----------------------------------------------------------2---------------------------2--|
D|----------------------------------------------------------------------------------------------------------|
A|---------2--------------------------------------------2----------0----------------------------------------|
E|----------------------------------------------------------------------------------------------------------|

[cane]
[Chord: E]
E|------------------------------0-------2------0-----------------------------------------0---------2-----0--|
B|----------------------0----------------------------------------------------------0------------------------|
G|----------------1-----------------------------------------------------------1-----------------------------|
D|----------------------------------------------------------------------------------------------------------|
A|----------------------------------------------------------------------------------------------------------|
E|---------0------------------------------------------------------------0-----------------------------------|

[2nd VERSE]
[I almost lost you, you may have lost me]
[Chord: E]
E|------------------------------0-------2------0-----------------------------------------0---------2-----0--|
B|----------------------0----------------------------------------------------------0------------------------|
G|----------------1-----------------------------------------------------------1-----------------------------|
D|----------------------------------------------------------------------------------------------------------|
A|----------------------------------------------------------------------------------------------------------|
E|---------0------------------------------------------------------------0-----------------------------------|

You were on the tip of my tongue in the wind like a kiss on my cheek
[Chord: A
]
E|------------------------------0---------------------------------------------------------------0-----------|
B|----------------------2--------------2-----------------------------------------------2-------------2------|
G|----------------2------------------------------------2----------------------2---------------------------2-|
D|----------------------------------------------------------------------------------------------------------|
A|---------0------------------------------------------------------0-----------------------------------------|
E|----------------------------------------------------------------------------------------------------------|

But I lost those years and they've come and gone
[Chord: E
]
E|------------------------------0-------2------0-----------------------------------------0--------2------0--|
B|----------------------0----------------------------------------------------------0------------------------|
G|----------------1-----------------------------------------------------------1-----------------------------|
D|----------------------------------------------------------------------------------------------------------|
A|----------------------------------------------------------------------------------------------------------|
E|---------0------------------------------------------------------------0-----------------------------------|

[I know they still haunt me like a lonesome lover's song]
[Chord: A]
E|------------------------------0---------------------------------------------------------------0-----------|
B|----------------------2--------------2-----------------------------------------------2-------------2------|
G|----------------2------------------------------------2----------------------2----------------------------2|
D|----------------------------------------------------------------------------------------------------------|
A|---------0------------------------------------------------------0-----------------------------------------|
E|----------------------------------------------------------------------------------------------------------|

 And under-------------                                           neath the
[Chord: B]                                                                          A
E|------------------------------2---------------------------------------------------------------0-----------|
B|---------------------4--------------4-----------------------------------------------2-------------2-------|
G|----------------4----------------------------------------------------------2-----------------------------2|
D|----------------------------------------------------------------------------------------------------------|
A|---------2--------------------------------------------2----------0----------------------------------------|
E|----------------------------------------------------------------------------------------------------------|
Pain

[Chord: E]
E|------------------------------0-------2------0-----------------------------------------0--------2------0--|
B|----------------------0----------------------------------------------------------0------------------------|
G|----------------1-----------------------------------------------------------1-----------------------------|
D|----------------------------------------------------------------------------------------------------------|
A|----------------------------------------------------------------------------------------------------------|
E|---------0-----------------------------------------------------------0------------------------------------|
My fa-------------------------------------------------------------------------------------------------------|
vorite hurri

Chord: B                                                          A
E|------------------------------2--------------------------------------------------------------0------------|
B|---------------------4--------------4-----------------------------------------------2-------------2-------|
G|----------------4----------------------------------------------------------2-----------------------------2|
D|----------------------------------------------------------------------------------------------------------|
A|---------2--------------------------------------------2----------0----------------------------------------|
E|----------------------------------------------------------------------------------------------------------|
cane

[Chord: E]
E|------------------------------0-------2------0-----------------------------------------0--------2------0--|
B|----------------------0----------------------------------------------------------0------------------------|
G|----------------1-----------------------------------------------------------1-----------------------------|
D|----------------------------------------------------------------------------------------------------------|
A|----------------------------------------------------------------------------------------------------------|
E|---------0------------------------------------------------------------0-----------------------------------|

[BRIDGE
]
And all                                      I          ever did to you and you        ever did to me  was

[Chord: B]                                   E
E|------------------------------2------------------0--------------------------------------------------------|
B|---------------------4----------------------0---------------------0-------------------------------0-------|
G|----------------4---------------------1---------------------1----------1---------------------1--------1---|
D|---------------------------------2---------------------2------------------------2-------2----------------2|
A|---------2------------------------------------------------------------------------------------------------|
E|----------------------------------------------------0--------------------------------0--------------------|
all we had to do to                                           keep on breathing now

[Chord : B]
E|------------------------------2-------------------------------------------2-----|
B|---------------------4------------4------------------------------4------------4-|
G|----------------4-------------------------------4----------4--------------------|
D|--------------------------------------------------------------------------------|
A|---------2--------------------------------------------2-------------------------|
E|--------------------------------------------------------------------------------|
I -------see                                  that--------------------------------|      all along your

[Chord: A
]
E|------------------------------0----------------------------------------0--------------|
B|---------------------2------------2---------------------------2------------2----------|
G|----------------2-----------------------------2--------2---------------------------2--|
D|---------0----------------------------------------0-----------------------------------|
A|--------------------------------------------------------------------------------------|
E|--------------------------------------------------------------------------------------|
Sha-------------------------------------------------------------------------------------|
dow, Was my only way standing in the light, I

[Chord: B]                                    E
E|------------------------------2------------------0--------------------------------------------------------|
B|---------------------4----------------------0-------------------------0--------------------------0--------|
G|----------------4---------------------1-------------------------1----------1----------------1--------1----|
D|---------------------------------2--------------------------2--------------------2----2------------------2|
A|---------2------------------------------------------------------------------------------------------------|
E|-------------------------------------------------------0---------------------------0----------------------|
Fe------------------------------ll  down, broke-------------------------------------------------------------|
all the pieces every time you

[Chord: B]                                    E          A
E|------------------------------2------------------0----------------------0----------------------------0----|
B|---------------------4----------------------0---------------------2---------2---------------------2----2--|
G|----------------4---------------------1---------------------2--------------------2-----2------2----------2|
D|---------------------------------2------------------------------------------------------------------------|
A|---------2---------------------------------------------0----------------------------------0---------------|
E|----------------------------------------------------------------------------------------------------------|
saved       
                         me, from                                coming               all un----
[Chord: B]                           A                                       B                    A
E|------------------------------2----------------------------0--------------------------2--------------0----|
B|---------------------4-----------------------------2-----------2-------------------4-------4-------2---2--|
G|----------------4-------------------------2----------------------------2-------4--------------4--2-------2|
D|----------------------------------------------------------------------------------------------------------|
A|---------2-------------------------0----------------------------------------2-------------------0---------|
E|----------------------------------------------------------------------------------------------------------|

done
[repeat INTRO]
 And under-------------    
                                       neath the
[Chord: B]                                                                        A
E|------------------------------2---------------------------------------------------------------0-----------|
B|---------------------4--------------4-----------------------------------------------2--------------2------|
G|----------------4----------------------------------------------------------2-----------------------------2|
D|----------------------------------------------------------------------------------------------------------|
A|---------2--------------------------------------------2----------0----------------------------------------|
E|----------------------------------------------------------------------------------------------------------|
Pain

[Chord: E]
E|------------------------------0-------2------0-----------------------------------------0---------2-----0--|
B|----------------------0----------------------------------------------------------0------------------------|
G|----------------1-----------------------------------------------------------1-----------------------------|
D|----------------------------------------------------------------------------------------------------------|
A|----------------------------------------------------------------------------------------------------------|
E|---------0-----------------------------------------------------------0------------------------------------|
My fa-------------------------------------------------------------------------------------------------------|
vorite hurri

[Chord: B]                                                         A
E|------------------------------2---------------------------------------------------------------0-----------|
B|---------------------4--------------4-----------------------------------------------2--------------2------|
G|----------------4----------------------------------------------------------2-----------------------------2|
D|----------------------------------------------------------------------------------------------------------|
A|---------2--------------------------------------------2----------0----------------------------------------|
E|----------------------------------------------------------------------------------------------------------|
cane

[Chord: E]
E|------------------------------0-------2------0-----------------------------------------0---------2-----0--|
B|----------------------0----------------------------------------------------------0------------------------|
G|----------------1-----------------------------------------------------------1-----------------------------|
D|----------------------------------------------------------------------------------------------------------|
A|----------------------------------------------------------------------------------------------------------|
E|---------0------------------------------------------------------------0-----------------------------------|

            
            
Suggest correction
Creating personal tab
Creating personal tab
You can edit any tab online and save it as your Personal.

You can edit, replace or remove any tab part or add personal notes – all changes will be seen only by you.

Personal tabs can be accessed anytime from any device, even offline.
Learn more »
Give kudos to tab author, rate the tab!
1 2 3 4 5
comments
print report bad tab
guest
You may want to rate the tab now too:
select rating
Wanna post a correction for this tab? Suggest correction