Oops, an error
Loading. Please wait.

Someone Elses Boy bass

34 views 3 this week
no commentswrite comment
1 2 3 4 5
3 more votes to show rating
add to favorites
×
Save as Personal and add changes to this tab that will be seen only by you. Learn more ›
×
You can save this tab as Personal to edit and correct it or add notes. All changes will be seen only by you. Learn more »
launch autoscroll
font size
0
reset
guitar tuner
edit
Autoscroll
slow
fast
+/-
esc
set tempo
stop
Author
Someone Elses Boy
Released as a B side in 1961 by Connie Francis. Tab by bass50611
Great early sixties sound and should have been an A side.
Not completely exact as original, more of how I would play it.
Note the pause after first sequence in Intro. 
Comments at bass254@btinternet.com 

Intro:                  .
G|------------------------------------------------------------|
D|-5------2----------5-----------5------2----------5-----7----|
A|---5------2-2---3-----5----5-----5------2-2---3-----5-----5-|
E|------------------------------------------------------------|

Verse 1:                                         (Play This xx2)
G|--------------------------------------------------------------|
D|-5---5---2----------5------7-----5---5---2----------5-----7---|
A|----5------2-2---3------5----5------5------2-2---3-----5----5-|
E|--------------------------------------------------------------|

Verse 2:
G|--------------------------------------------------------------|
D|-5---5---2----------5------7-----5---5---2----------5-----7---|
A|----5------2-2---3------5----5------5------2-2---3-----5----5-|
E|--------------------------------------------------------------|

G|-------------------------------------------------------------|
D|-5---5---2----------5------7-----5---5---------5-----5-3-2---|
A|----5------2-2---3------5----5------5---3---------5--------5-|
E|------------------------------------------3-3----------------|

Bridge:
G|----------------------------------------------------------------------|
D|---2--5----4--7---5---5-------2--5----4--7---5---5-------2--5----4--7-|
A|-3-------5----------5---5-4-3-------5----------5---5-4-3-------5------|
E|----------------------------------------------------------------------|

G|--------------------------------------------|
D|-5---5--------------------------------------|
A|---5---5-------------5--5--5--5--5--5--5--5-|
E|---------7--5----5--------------------------|

Verse 3:
G|--------------------------------------------------------------|
D|-5---5---2----------5------7-----5---5---2----------5-----7---|
A|----5------2-2---3------5----5------5------2-2---3-----5----5-|
E|--------------------------------------------------------------|

G|-------------------------------------------------------------|
D|-5---5---2----------5------7-----5---5---------5-----5-3-2---|
A|----5------2-2---3------5----5------5---3---------5--------5-|
E|------------------------------------------3-3----------------|

Bridge:
G|----------------------------------------------------------------------|
D|---2--5----4--7---5---5-------2--5----4--7---5---5-------2--5----4--7-|
A|-3-------5----------5---5-4-3-------5----------5---5-4-3-------5------|
E|----------------------------------------------------------------------|

G|--------------------------------------------|
D|-5---5--------------------------------------|
A|---5---5-------------5--5--5--5--5--5--5--5-|
E|---------7--5----5--------------------------|

Verse 4:                                         (Play This x2)
G|--------------------------------------------------------------|
D|-5---5---2----------5------7-----5---5---2----------5-----7---|
A|----5------2-2---3------5----5------5------2-2---3-----5----5-|
E|--------------------------------------------------------------|

Outro:                                         (Repeat to Fade/End
G|--------------------------------------------------------------|
D|-5---5---2----------5------7-----5---5---2----------5-----7---|
A|----5------2-2---3------5----5------5------2-2---3-----5----5-|
E|--------------------------------------------------------------|

Suggest correction
Creating personal tab
Creating personal tab
You can edit any tab online and save it as your Personal.

You can edit, replace or remove any tab part or add personal notes – all changes will be seen only by you.

Personal tabs can be accessed anytime from any device, even offline.
Learn more »
Give kudos to tab author, rate the tab!
1 2 3 4 5
comments
print report bad tab
guest
You may want to rate the tab now too:
select rating
Wanna post a correction for this tab? Suggest correction