Oops, an error
Loading. Please wait.

Gossamer Thin tab

340 views 9 this week
no commentswrite comment
1 2 3 4 5
2 more votes to show rating
add to favorites
×
Save as Personal and add changes to this tab that will be seen only by you. Learn more ›
×
You can save this tab as Personal to edit and correct it or add notes. All changes will be seen only by you. Learn more »
launch autoscroll
font size
0
reset
how to read this tab
guitar tuner
edit
Autoscroll
slow
fast
+/-
esc
set tempo
stop
About this tab version
Transcription of the piano part. Was this info helpful? Yes No
tuned half step down

[Intro]
d#|--------3---0-----------|--------3---0-----------|--------3---0-----------|------------------------|
A#|1---1-------1---1-------|1---1-------1---1-------|1---1-------1---1-------|1-----------3-----------|
F#|0-----0-----2-------2---|0-----0-----2-------2---|0-----0-----2-------2---|2---2---2---0---0---0---|
C#|2-----------2-----------|2-----------2-----------|2-----------2-----------|3-----------0-----------|
G#|3-----------0-----3-----|3-----------0-----3-----|3-----------0-----3-----|3-----------x-----2-----|
D#|------------------------|------------------------|------------------------|1-----1-----3-----------|
   ^ ' ^ ' ^ ' ^ ' ^ ' ^ '  ^ ' ^ ' ^ ' ^ ' ^ ' ^ '  ^ ' ^ ' ^ ' ^ ' ^ ' ^ '  ^ ' ^ ' ^ ' ^ ' ^ ' ^ '  
   1   2   3   4   5   6    1   2   3   4   5   6    1   2   3   4   5   6    1   2   3   4   5   6    

[Verse 1]
d#|--------3---0-----------|--------3---0-----------|--------3---0-----------|------------------------|
A#|1---1-------1---1-------|1---1-------1---1-------|1---1-------1---1-------|1-----------3-----------|
F#|0-----0-----2-------2---|0-----0-----2-------2---|0-----0-----2-------2---|2---2---2---0---0---0---|
C#|2-----------2-----------|2-----------2-----------|2-----------2-----------|3-----------0-----------|
G#|3-----------0-----3-----|3-----------0-----3-----|3-----------0-----3-----|3-----------x-----2-----|
D#|------------------------|------------------------|------------------------|1-----1-----3-----------|
   ^ ' ^ ' ^ ' ^ ' ^ ' ^ '  ^ ' ^ ' ^ ' ^ ' ^ ' ^ '  ^ ' ^ ' ^ ' ^ ' ^ ' ^ '  ^ ' ^ ' ^ ' ^ ' ^ ' ^ '  
   1   2   3   4   5   6    1   2   3   4   5   6    1   2   3   4   5   6    1   2   3   4   5   6    
   rings round his eyes     tracks down his arms his fans are confused and his friends are alarmed

d#|--------3---0-----------|--------3---0-----------|--------3---0-----------|------------------------|
A#|1---1-------1---1-------|1---1-------1---1-------|1---1-------1---1-------|1-----------3-----------|
F#|0-----0-----2-------2---|0-----0-----2-------2---|0-----0-----2-------2---|2---2---2---0---0---0---|
C#|2-----------2-----------|2-----------2-----------|2-----------2-----------|3-----------0-----------|
G#|3-----------0-----3-----|3-----------0-----3-----|3-----------0-----3-----|3-----------x-----2-----|
D#|------------------------|------------------------|------------------------|1-----1-----3-----------|
   ^ ' ^ ' ^ ' ^ ' ^ ' ^ '  ^ ' ^ ' ^ ' ^ ' ^ ' ^ '  ^ ' ^ ' ^ ' ^ ' ^ ' ^ '  ^ ' ^ ' ^ ' ^ ' ^ ' ^ '  
   1   2   3   4   5   6    1   2   3   4   5   6    1   2   3   4   5   6    1   2   3   4   5   6    
his wife doesn't talk       hates when he's gone     counts every skirt in his new entourage and they're

[Chorus 1]
d#|------------------------|------------------------|3-----------3-----------|3-----------3-----------|
A#|1-----------1-----------|3-----------3-----------|1---1---1---1---1---1---|0---0---0---0---0---0---|
F#|2---2---2---2---2---2---|0---0---0---0---0---0---|0---0---0---0---0---0---|0---0---0---0---0---0---|
C#|3---3---3---3---3---3---|0---0---0---0---0---0---|2---2---2---2---2---2---|2---2---2---2---2---2---|
G#|3-----------3-----------|x-----------2-----------|3-----------3-----------|2-----------2-----------|
D#|1-----------1-----------|3-----------3-----------|------------------------|------------------------|
   ^ ' ^ ' ^ ' ^ ' ^ ' ^ '  ^ ' ^ ' ^ ' ^ ' ^ ' ^ '  ^ ' ^ ' ^ ' ^ ' ^ ' ^ '  ^ ' ^ ' ^ ' ^ ' ^ ' ^ '  
   1   2   3   4   5   6    1   2   3   4   5   6    1   2   3   4   5   6    1   2   3   4   5   6    
   all         gossamer thin            left of the dial         bohemians                and they

d#|------------------------|------------------------|3-----------3-----------|0-----------0-----------|
A#|1-----------1-----------|3-----------3-----------|1---1---1---1---1---1---|1---1---1---1---1---1---|
F#|2---2---2---2---2---2---|0---0---0---0---0---0---|0---0---0---0---0---0---|2---2---2---2---2---2---|
C#|3---3---3---3---3---3---|0---0---0---0---0---0---|2---2---2---2---2---2---|2---2---2---2---2---2---|
G#|3-----------3-----------|x-----------2-----------|3-----------3-----------|0-----------0-----------|
D#|1-----------1-----------|3-----------3-----------|------------------------|------------------------|
   ^ ' ^ ' ^ ' ^ ' ^ ' ^ '  ^ ' ^ ' ^ ' ^ ' ^ ' ^ '  ^ ' ^ ' ^ ' ^ ' ^ ' ^ '  ^ ' ^ ' ^ ' ^ ' ^ ' ^ '  
   1   2   3   4   5   6    1   2   3   4   5   6    1   2   3   4   5   6    1   2   3   4   5   6    
   dance       tournament style         twirl round the room     courtsy and smile            and they

d#|--------3---0-----------|--------3---0-----------|------------------------|------------------------|
A#|1---1-------1---1-------|1---1-------1---1-------|1-----------3-----------|1-----------3-----------|
F#|0-----0-----2-------2---|0-----0-----2-------2---|2---2---2---0---0---0---|2---2---2---0---0---0---|
C#|2-----------2-----------|2-----------2-----------|3-----------0-----------|3-----------0-----------|
G#|3-----------0-----3-----|3-----------0-----3-----|3-----------x-----2-----|3-----------x-----2-----|
D#|------------------------|------------------------|1-----1-----3-----------|1-----------3-----------|
   ^ ' ^ ' ^ ' ^ ' ^ ' ^ '  ^ ' ^ ' ^ ' ^ ' ^ ' ^ '  ^ ' ^ ' ^ ' ^ ' ^ ' ^ '  ^ ' ^ ' ^ ' ^ ' ^ ' ^ '  
   1   2   3   4   5   6    1   2   3   4   5   6    1   2   3   4   5   6    1   2   3   4   5   6    
   sit at his feet          read poetry          and swoon       with    each word        he      speaks

[Harmonica Break 1]
d#|--------3---0-----------|--------3---0-----------|--------3---0-----------|------------------------|
A#|1---1-------1---1-------|1---1-------1---1-------|1---1-------1---1-------|1-----------3-----------|
F#|0-----0-----2-------2---|0-----0-----2-------2---|0-----0-----2-------2---|2---2---2---0---0---0---|
C#|2-----------2-----------|2-----------2-----------|2-----------2-----------|3-----------0-----------|
G#|3-----------0-----3-----|3-----------0-----3-----|3-----------0-----3-----|3-----------x-----2-----|
D#|------------------------|------------------------|------------------------|1-----1-----3-----------|
   ^ ' ^ ' ^ ' ^ ' ^ ' ^ '  ^ ' ^ ' ^ ' ^ ' ^ ' ^ '  ^ ' ^ ' ^ ' ^ ' ^ ' ^ '  ^ ' ^ ' ^ ' ^ ' ^ ' ^ '  
   1   2   3   4   5   6    1   2   3   4   5   6    1   2   3   4   5   6    1   2   3   4   5   6    

[Verse 2]
d#|--------3---0-----------|--------3---0-----------|--------3---0-----------|------------------------|
A#|1---1-------1---1-------|1---1-------1---1-------|1---1-------1---1-------|1-----------3-----------|
F#|0-----0-----2-------2---|0-----0-----2-------2---|0-----0-----2-------2---|2---2---2---0---0---0---|
C#|2-----------2-----------|2-----------2-----------|2-----------2-----------|3-----------0-----------|
G#|3-----------0-----3-----|3-----------0-----3-----|3-----------0-----3-----|3-----------x-----2-----|
D#|------------------------|------------------------|------------------------|1-----1-----3-----------|
   ^ ' ^ ' ^ ' ^ ' ^ ' ^ '  ^ ' ^ ' ^ ' ^ ' ^ ' ^ '  ^ ' ^ ' ^ ' ^ ' ^ ' ^ '  ^ ' ^ ' ^ ' ^ ' ^ ' ^ '  
   1   2   3   4   5   6    1   2   3   4   5   6    1   2   3   4   5   6    1   2   3   4   5   6    
she likes the new pope she's not scared of hell they meet once a week at a secret motel

d#|--------3---0-----------|--------3---0-----------|--------3---0-----------|------------------------|
A#|1---1-------1---1-------|1---1-------1---1-------|1---1-------1---1-------|1-----------3-----------|
F#|0-----0-----2-------2---|0-----0-----2-------2---|0-----0-----2-------2---|2---2---2---0---0---0---|
C#|2-----------2-----------|2-----------2-----------|2-----------2-----------|3-----------0-----------|
G#|3-----------0-----3-----|3-----------0-----3-----|3-----------0-----3-----|3-----------x-----2-----|
D#|------------------------|------------------------|------------------------|1-----1-----3-----------|
   ^ ' ^ ' ^ ' ^ ' ^ ' ^ '  ^ ' ^ ' ^ ' ^ ' ^ ' ^ '  ^ ' ^ ' ^ ' ^ ' ^ ' ^ '  ^ ' ^ ' ^ ' ^ ' ^ ' ^ '  
   1   2   3   4   5   6    1   2   3   4   5   6    1   2   3   4   5   6    1   2   3   4   5   6    
she kisses his neck she plays with his hair her screams sound like pleasure her moans like despair and they're

[Chorus 2]
d#|------------------------|------------------------|3-----------3-----------|3-----------3-----------|
A#|1-----------1-----------|3-----------3-----------|1---1---1---1---1---1---|0---0---0---0---0---0---|
F#|2---2---2---2---2---2---|0---0---0---0---0---0---|0---0---0---0---0---0---|0---0---0---0---0---0---|
C#|3---3---3---3---3---3---|0---0---0---0---0---0---|2---2---2---2---2---2---|2---2---2---2---2---2---|
G#|3-----------3-----------|x-----------2-----------|3-----------3-----------|2-----------2-----------|
D#|1-----------1-----------|3-----------3-----------|------------------------|------------------------|
   ^ ' ^ ' ^ ' ^ ' ^ ' ^ '  ^ ' ^ ' ^ ' ^ ' ^ ' ^ '  ^ ' ^ ' ^ ' ^ ' ^ ' ^ '  ^ ' ^ ' ^ ' ^ ' ^ ' ^ '  
   1   2   3   4   5   6    1   2   3   4   5   6    1   2   3   4   5   6    1   2   3   4   5   6    
   spread      gossamer thin            pushed to the edge       frayed at the ends           and it's

d#|------------------------|------------------------|3-----------3-----------|0-----------0-----------|
A#|1-----------1-----------|3-----------3-----------|1---1---1---1---1---1---|1---1---1---1---1---1---|
F#|2---2---2---2---2---2---|0---0---0---0---0---0---|0---0---0---0---0---0---|2---2---2---2---2---2---|
C#|3---3---3---3---3---3---|0---0---0---0---0---0---|2---2---2---2---2---2---|2---2---2---2---2---2---|
G#|3-----------3-----------|x-----------2-----------|3-----------3-----------|0-----------0-----------|
D#|1-----------1-----------|3-----------3-----------|------------------------|------------------------|
   ^ ' ^ ' ^ ' ^ ' ^ ' ^ '  ^ ' ^ ' ^ ' ^ ' ^ ' ^ '  ^ ' ^ ' ^ ' ^ ' ^ ' ^ '  ^ ' ^ ' ^ ' ^ ' ^ ' ^ '  
   1   2   3   4   5   6    1   2   3   4   5   6    1   2   3   4   5   6    1   2   3   4   5   6    
   no          business of mine      if they can love more than one at a time                 but they're

d#|--------3---0-----------|--------3---0-----------|------------------------|------------------------|
A#|1---1-------1---1-------|1---1-------1---1-------|1-----------3-----------|1-----------3-----------|
F#|0-----0-----2-------2---|0-----0-----2-------2---|2---2---2---0---0---0---|2---2---2---0---0---0---|
C#|2-----------2-----------|2-----------2-----------|3-----------0-----------|3-----------0-----------|
G#|3-----------0-----3-----|3-----------0-----3-----|3-----------x-----2-----|3-----------x-----2-----|
D#|------------------------|------------------------|1-----1-----3-----------|1-----------3-----------|
   ^ ' ^ ' ^ ' ^ ' ^ ' ^ '  ^ ' ^ ' ^ ' ^ ' ^ ' ^ '  ^ ' ^ ' ^ ' ^ ' ^ ' ^ '  ^ ' ^ ' ^ ' ^ ' ^ ' ^ '  
   1   2   3   4   5   6    1   2   3   4   5   6    1   2   3   4   5   6    1   2   3   4   5   6    
   pushing their luck       hard but they must       risk        it           all         for     love

[Harmonica Break 2]
d#|--------3---0-----------|--------3---0-----------|--------3---0-----------|------------------------|
A#|1---1-------1---1-------|1---1-------1---1-------|1---1-------1---1-------|1-----------3-----------|
F#|0-----0-----2-------2---|0-----0-----2-------2---|0-----0-----2-------2---|2---2---2---0---0---0---|
C#|2-----------2-----------|2-----------2-----------|2-----------2-----------|3-----------0-----------|
G#|3-----------0-----3-----|3-----------0-----3-----|3-----------0-----3-----|3-----------x-----2-----|
D#|------------------------|------------------------|------------------------|1-----1-----3-----------|
   ^ ' ^ ' ^ ' ^ ' ^ ' ^ '  ^ ' ^ ' ^ ' ^ ' ^ ' ^ '  ^ ' ^ ' ^ ' ^ ' ^ ' ^ '  ^ ' ^ ' ^ ' ^ ' ^ ' ^ '  
   1   2   3   4   5   6    1   2   3   4   5   6    1   2   3   4   5   6    1   2   3   4   5   6    

[Bridge]
d#|3-----------3-----------|3-----------3-----------|------------------------|------------------------|
A#|1---1---1---1---1---1---|1---1---1---1---1---1---|1-----------------------|3-----------------------|
F#|3---3---3---3---3---3---|3---3---3---3---3---3---|2---2---2---2---2---2---|0---0---0---0---0---0---|
C#|2---2---2---2---2---2---|2---2---2---2---2---2---|3-----------3-----------|0-----------0-----------|
G#|1-----------1-----------|1-----------1-----------|3-----------3-----------|X-----2-----2-----------|
D#|------------------------|------------------------|1-----------1-----------|3-----------3-----------|
   ^ ' ^ ' ^ ' ^ ' ^ ' ^ '  ^ ' ^ ' ^ ' ^ ' ^ ' ^ '  ^ ' ^ ' ^ ' ^ ' ^ ' ^ '  ^ ' ^ ' ^ ' ^ ' ^ ' ^ '  
   1   2   3   4   5   6    1   2   3   4   5   6    1   2   3   4   5   6    1   2   3   4   5   6    
           now i walk around        in some kind of  altered                  state

d#|0-----------------------|------------------------|3-----------3-----------|------------------------|
A#|1-----------1-----------|1-----------1-----------|1---1---1---1---1---1---|3-----------3-----------|
F#|2---2---2---2---2---2---|2-----------2---2---2---|0-----------0-----------|0---0---0---0---0---0---|
C#|2-----------2-----------|3---3---3---3-----------|2-----------2-----------|0-----------0-----------|
G#|0-----------0-----------|3-----------3-----------|3-----------3-----------|x-----------2-----------|
D#|------------------------|1-----------1-----------|------------------------|3-----------3-----------|
   ^ ' ^ ' ^ ' ^ ' ^ ' ^ '  ^ ' ^ ' ^ ' ^ ' ^ ' ^ '  ^ ' ^ ' ^ ' ^ ' ^ ' ^ '  ^ ' ^ ' ^ ' ^ ' ^ ' ^ '  
   1   2   3   4   5   6    1   2   3   4   5   6    1   2   3   4   5   6    1   2   3   4   5   6    
           the drink in my hand     is starting to shake

d#|3-----------3-----------|3-----------3-----------|------------------------|------------------------|
A#|1---1---1---1---1---1---|1---1---1---1---1---1---|1-----------------------|3-----------------------|
F#|3---3---3---3---3---3---|3---3---3---3---3---3---|2---2---2---2---2---2---|0---0---0---0---0---0---|
C#|2---2---2---2---2---2---|2---2---2---2---2---2---|3-----------3-----------|0-----------0-----------|
G#|1-----------1-----------|1-----------1-----------|3-----------3-----------|X-----2-----2-----------|
D#|------------------------|------------------------|1-----------1-----------|3-----------3-----------|
   ^ ' ^ ' ^ ' ^ ' ^ ' ^ '  ^ ' ^ ' ^ ' ^ ' ^ ' ^ '  ^ ' ^ ' ^ ' ^ ' ^ ' ^ '  ^ ' ^ ' ^ ' ^ ' ^ ' ^ '  
   1   2   3   4   5   6    1   2   3   4   5   6    1   2   3   4   5   6    1   2   3   4   5   6      
          i'll get used to it        if it has to stay                    this way

d#|0-----------------------|------------------------|------------------------|------------------------|
A#|1-----------1-----------|1-----------1-----------|3-----------3-----------|3-----------3-----------|
F#|2---2---2---2---2---2---|2-----------2---2---2---|0---0---0---0---0---0---|0---0---0---0---0---0---|
C#|2-----------2-----------|3---3---3---3-----------|0-----------0-----------|0-----------0-----------|
G#|0-----------0-----------|3-----------3-----------|x-----------x-----------|2-----------2-----------|
D#|------------------------|1-----------1-----------|3-----------3-----------|3-----------3-----------|
   ^ ' ^ ' ^ ' ^ ' ^ ' ^ '  ^ ' ^ ' ^ ' ^ ' ^ ' ^ '  ^ ' ^ ' ^ ' ^ ' ^ ' ^ '  ^ ' ^ ' ^ ' ^ ' ^ ' ^ '  
   1   2   3   4   5   6    1   2   3   4   5   6    1   2   3   4   5   6    1   2   3   4   5   6   
           a new bunch of flowers   i'll have to arrange

[Harmonica Break 3]
d#|--------3---0-----------|--------3---0-----------|--------3---0-----------|------------------------|
A#|1---1-------1---1-------|1---1-------1---1-------|1---1-------1---1-------|1-----------3-----------|
F#|0-----0-----2-------2---|0-----0-----2-------2---|0-----0-----2-------2---|2---2---2---0---0---0---|
C#|2-----------2-----------|2-----------2-----------|2-----------2-----------|3-----------0-----------|
G#|3-----------0-----3-----|3-----------0-----3-----|3-----------0-----3-----|3-----------x-----2-----|
D#|------------------------|------------------------|------------------------|1-----1-----3-----------|
   ^ ' ^ ' ^ ' ^ ' ^ ' ^ '  ^ ' ^ ' ^ ' ^ ' ^ ' ^ '  ^ ' ^ ' ^ ' ^ ' ^ ' ^ '  ^ ' ^ ' ^ ' ^ ' ^ ' ^ '  
   1   2   3   4   5   6    1   2   3   4   5   6    1   2   3   4   5   6    1   2   3   4   5   6    

[Verse 3]
d#|--------3---0-----------|--------3---0-----------|--------3---0-----------|------------------------|
A#|1---1-------1---1-------|1---1-------1---1-------|1---1-------1---1-------|1-----------3-----------|
F#|0-----0-----2-------2---|0-----0-----2-------2---|0-----0-----2-------2---|2---2---2---0---0---0---|
C#|2-----------2-----------|2-----------2-----------|2-----------2-----------|3-----------0-----------|
G#|3-----------0-----3-----|3-----------0-----3-----|3-----------0-----3-----|3-----------x-----2-----|
D#|------------------------|------------------------|------------------------|1-----1-----3-----------|
   ^ ' ^ ' ^ ' ^ ' ^ ' ^ '  ^ ' ^ ' ^ ' ^ ' ^ ' ^ '  ^ ' ^ ' ^ ' ^ ' ^ ' ^ '  ^ ' ^ ' ^ ' ^ ' ^ ' ^ '  
   1   2   3   4   5   6    1   2   3   4   5   6    1   2   3   4   5   6    1   2   3   4   5   6    
 i don't want to eat     or get out of bed           try to recall what the therapist said

d#|--------3---0-----------|--------3---0-----------|--------3---0-----------|------------------------|
A#|1---1-------1---1-------|1---1-------1---1-------|1---1-------1---1-------|1-----------3-----------|
F#|0-----0-----2-------2---|0-----0-----2-------2---|0-----0-----2-------2---|2---2---2---0---0---0---|
C#|2-----------2-----------|2-----------2-----------|2-----------2-----------|3-----------0-----------|
G#|3-----------0-----3-----|3-----------0-----3-----|3-----------0-----3-----|3-----------x-----2-----|
D#|------------------------|------------------------|------------------------|1-----1-----3-----------|
   ^ ' ^ ' ^ ' ^ ' ^ ' ^ '  ^ ' ^ ' ^ ' ^ ' ^ ' ^ '  ^ ' ^ ' ^ ' ^ ' ^ ' ^ '  ^ ' ^ ' ^ ' ^ ' ^ ' ^ '  
   1   2   3   4   5   6    1   2   3   4   5   6    1   2   3   4   5   6    1   2   3   4   5   6    
   ego and id           the essential self       you are who you are and you are someone else but i'm

[Chorus 3]
d#|------------------------|------------------------|3-----------3-----------|3-----------3-----------|
A#|1-----------1-----------|3-----------3-----------|1---1---1---1---1---1---|0---0---0---0---0---0---|
F#|2---2---2---2---2---2---|0---0---0---0---0---0---|0---0---0---0---0---0---|0---0---0---0---0---0---|
C#|3---3---3---3---3---3---|0---0---0---0---0---0---|2---2---2---2---2---2---|2---2---2---2---2---2---|
G#|3-----------3-----------|x-----------2-----------|3-----------3-----------|2-----------2-----------|
D#|1-----------1-----------|3-----------3-----------|------------------------|------------------------|
   ^ ' ^ ' ^ ' ^ ' ^ ' ^ '  ^ ' ^ ' ^ ' ^ ' ^ ' ^ '  ^ ' ^ ' ^ ' ^ ' ^ ' ^ '  ^ ' ^ ' ^ ' ^ ' ^ ' ^ '  
   1   2   3   4   5   6    1   2   3   4   5   6    1   2   3   4   5   6    1   2   3   4   5   6    
   worn        gossamer thin        like delicate arch           carved by the wind           there's a

d#|------------------------|------------------------|3-----------3-----------|0-----------0-----------|
A#|1-----------1-----------|3-----------3-----------|1---1---1---1---1---1---|1---1---1---1---1---1---|
F#|2---2---2---2---2---2---|0---0---0---0---0---0---|0---0---0---0---0---0---|2---2---2---2---2---2---|
C#|3---3---3---3---3---3---|0---0---0---0---0---0---|2---2---2---2---2---2---|2---2---2---2---2---2---|
G#|3-----------3-----------|x-----------2-----------|3-----------3-----------|0-----------0-----------|
D#|1-----------1-----------|3-----------3-----------|------------------------|------------------------|
   ^ ' ^ ' ^ ' ^ ' ^ ' ^ '  ^ ' ^ ' ^ ' ^ ' ^ ' ^ '  ^ ' ^ ' ^ ' ^ ' ^ ' ^ '  ^ ' ^ ' ^ ' ^ ' ^ ' ^ '  
   1   2   3   4   5   6    1   2   3   4   5   6    1   2   3   4   5   6    1   2   3   4   5   6    
   glass       psyche at stake          throw me a brick         see if it breaks             cause the

d#|--------3---0-----------|--------3---0-----------|------------------------|------------------------|
A#|1---1-------1---1-------|1---1-------1---1-------|1-----------3-----------|1-----------3-----------|
F#|0-----0-----2-------2---|0-----0-----2-------2---|2---2---2---0---0---0---|2---2---2---0---0---0---|
C#|2-----------2-----------|2-----------2-----------|3-----------0-----------|3-----------0-----------|
G#|3-----------0-----3-----|3-----------0-----3-----|3-----------x-----2-----|3-----------x-----2-----|
D#|------------------------|------------------------|1-----1-----3-----------|1-----------3-----------|
   ^ ' ^ ' ^ ' ^ ' ^ ' ^ '  ^ ' ^ ' ^ ' ^ ' ^ ' ^ '  ^ ' ^ ' ^ ' ^ ' ^ ' ^ '  ^ ' ^ ' ^ ' ^ ' ^ ' ^ '  
   1   2   3   4   5   6    1   2   3   4   5   6    1   2   3   4   5   6    1   2   3   4   5   6    
   mind and the brain       aren't quite the same but they both want          out of      this place

[Harmonica Break 3]
d#|--------3---0-----------|--------3---0-----------|--------3---0-----------|------------------------|
A#|1---1-------1---1-------|1---1-------1---1-------|1---1-------1---1-------|1-----------3-----------|
F#|0-----0-----2-------2---|0-----0-----2-------2---|0-----0-----2-------2---|2---2---2---0---0---0---|
C#|2-----------2-----------|2-----------2-----------|2-----------2-----------|3-----------0-----------|
G#|3-----------0-----3-----|3-----------0-----3-----|3-----------0-----3-----|3-----------x-----2-----|
D#|------------------------|------------------------|------------------------|1-----1-----3-----------|
   ^ ' ^ ' ^ ' ^ ' ^ ' ^ '  ^ ' ^ ' ^ ' ^ ' ^ ' ^ '  ^ ' ^ ' ^ ' ^ ' ^ ' ^ '  ^ ' ^ ' ^ ' ^ ' ^ ' ^ '  
   1   2   3   4   5   6    1   2   3   4   5   6    1   2   3   4   5   6    1   2   3   4   5   6    

d#|--------3---0-----------|--------3---0-----------|--------3---0-----------|------------------------|
A#|1---1-------1---1-------|1---1-------1---1-------|1---1-------1---1-------|1-----------3-----------|
F#|0-----0-----2-------2---|0-----0-----2-------2---|0-----0-----2-------2---|2---2---2---0-----------|
C#|2-----------2-----------|2-----------2-----------|2-----------2-----------|3-----------0-----------|
G#|3-----------0-----3-----|3-----------0-----3-----|3-----------0-----3-----|3-----------x-----------|
D#|------------------------|------------------------|------------------------|1-----------3-----------|
   ^ ' ^ ' ^ ' ^ ' ^ ' ^ '  ^ ' ^ ' ^ ' ^ ' ^ ' ^ '  ^ ' ^ ' ^ ' ^ ' ^ ' ^ '  ^ ' ^ ' ^ ' ^ ' ^ ' ^ '  
   1   2   3   4   5   6    1   2   3   4   5   6    1   2   3   4   5   6    1   2   3   4   5   6    

d#|------------------------|
A#|1-----------------------|
F#|0-----------------------|
C#|2-----------------------|
G#|3-----------------------|
D#|------------------------|
   ^ ' ^ ' ^ ' ^ ' ^ ' ^ ' |
   1   2   3   4   5   6


************************************

| x  Dead note

************************************

            
            
Suggest correction
Creating personal tab
Creating personal tab
You can edit any tab online and save it as your Personal.

You can edit, replace or remove any tab part or add personal notes – all changes will be seen only by you.

Personal tabs can be accessed anytime from any device, even offline.
Learn more »
Give kudos to tab author, rate the tab!
1 2 3 4 5
comments
print report bad tab
guest
You may want to rate the tab now too:
select rating
Wanna post a correction for this tab? Suggest correction