Oops, an error
Loading. Please wait.
2,937 views 3 this week
no commentswrite comment
1 2 3 4 5
x 4
add to favorites
×
Save as Personal and add changes to this tab that will be seen only by you. Learn more ›
×
You can save this tab as Personal to edit and correct it or add notes. All changes will be seen only by you. Learn more »
launch autoscroll
font size
0
reset
how to read this tab
guitar tuner
edit
Autoscroll
slow
fast
+/-
esc
set tempo
stop
This is the whole song, with the solo tabbed out. I've got to thank "Tyyger" for the 
But, I noticed there was no solo on here, so here it is: The lyrics, chords, and solo...

 chords:
A [x02220]
D [xx0232]
Bm [x24432]
F#m [244222]
E [022100]

capo on 3rd


   A
Ten women (ten women)

Ten women
                 D
Between you and me
    A
Ten women (ten women)

Ten women
                      Bm    D
The nightmare and the fantasy
   F#m
Ten women
                     E
The thrill and the shame
    A
Ten women
                 D
I miss you the same
              Bm          E
While you're kissing the ring
         A           D
Of some good timing king
   Bm
Ten women
   E           A
A fool I have made

    A
Two faces (two faces)

Two faces
               D
Two faces you have
    A
Two faces (two faces)

Two faces
                 Bm    D
Keep one in your back
   F#m
Two faces
                     E
From which you can choose
   A
Two faces
                 D
And neither one you
          Bm         E
Well I'm biding my time
         A        D
Like a cellar of wine
    Bm
Two faces
         E       A
You'll never refute


-solo-

E-|-----------------------------------------------|
A-|-----------------------------------------------|
D-|-----------------------------------2h4---------|
G-|--2--------2----2--------2--2h4----------------|
B-|-----2--0----------2--0------------------------|
e-|--0-------------0------------------------------|

E-|-----------------------------------------------|
A-|-----------------------------------------------|
D-|--------------------------------------------4--|
G-|--2--------2----2--------2--2h4--4/6--4--2-----|
B-|-----2--0----------2--0------------------------|
e-|--0-------------0------------------------------|

E-|-----------------------------------------------|
A-|---------------------2-2h4---------------------|
D-|---------------------------2h4-----------------|
G-|--2--------2--2h4--------------2--4/6--2-------|
B-|-----2--0--------------------------------------|
e-|--0--------------------------------------------|

E-|------------------------------------------------|
A-|------------------------------------------------|
D-|----------------------2h4-----------------------|
G-|---4/7--7p6-4--6-4-2-------4/7--7p6-4-2/4--2~~~-|
B-|------------------------------------------------|
e-|------------------------------------------------|

    A
One witness (one witness)

One witness
                D
Is all that I need
    A
One witness (one witness)

One witness
                Bm   D
Just someone to see
   F#m
One witness
                    E
To all that's been done
    A
One witness
                    D
Whose eyes will not run
      Bm          E
Just someone to shout
         A          D
In this big, empty house
     Bm
One witness
     E             A
To mourn for our love

    A
Ten women (ten women)

Ten women
                D
Between you and me
    A
Ten women (ten women)

Ten women
                   Bm     D
The glory and the tragedy
   F#m
Ten women
               E
To trust and betray
    A
Ten women
                 D
I want you the same
        Bm            E
It will be like it's been
        A           D
If you come home again
        Bm
With ten women
         E         A
Who have all gone away

Thanks...

            
            
Suggest correction
Creating personal tab
Creating personal tab
You can edit any tab online and save it as your Personal.

You can edit, replace or remove any tab part or add personal notes – all changes will be seen only by you.

Personal tabs can be accessed anytime from any device, even offline.
Learn more »
comments
print report bad tab
guest
You may want to rate the tab now too:
select rating
Wanna post a correction for this tab? Suggest correction