Oops, an error
Loading. Please wait.

Sube Mas Alto tab

85 views 1 this week
no commentswrite comment
1 2 3 4 5
3 more votes to show rating
add to favorites
×
Save as Personal and add changes to this tab that will be seen only by you. Learn more ›
×
You can save this tab as Personal to edit and correct it or add notes. All changes will be seen only by you. Learn more »
launch autoscroll
font size
0
reset
how to read this tab
guitar tuner
edit
Autoscroll
slow
fast
+/-
esc
set tempo
stop
INTRO
    C                         C                           F
e|--12-12-----10-10-----|-----12-12-----10-10-----|-------10-10-----8-8-----|
B|-------------------8--|----------------------8--|----------------------6--|
G|----------------------|-------------------------|-------------------------|
D|----------------------|-------------------------|-------------------------|
A|----------------------|-------------------------|-------------------------|
E|----------------------|-------------------------|-------------------------|

                         PUEBLOS TODOS...
    F                       C                          C
e|--10-10-----8-8-----|-----12-12-----10-10-----|------12-12-----10-10------|
B|-----------------6--|----------------------8--|------------------------8--|
G|--------------------|-------------------------|---------------------------|
D|--------------------|-------------------------|---------------------------|
A|--------------------|-------------------------|---------------------------|
E|--------------------|-------------------------|---------------------------|
    C                         F                         F
e|--12-12-----10-10-----|-----10-10-----8-8-----|-------10-10-----8-8------|
B|-------------------8--|--------------------6--|----------------------6---|
G|----------------------|-----------------------|--------------------------|
D|----------------------|-----------------------|--------------------------|
A|----------------------|-----------------------|--------------------------|
E|----------------------|-----------------------|--------------------------|
    C                         C                         C
e|--12-12-----10-10-----|-----12-12-----10-10-----|-----12-12-----10-10-----|
B|-------------------8--|----------------------8--|----------------------8--|
G|----------------------|-------------------------|-------------------------|
D|----------------------|-------------------------|-------------------------|
A|----------------------|-------------------------|-------------------------|
E|----------------------|-------------------------|-------------------------|

    F                       F             SOL DE JUSTICIA
e|--10-10-----8-8-----|-----10-10-----8-8---------|
B|-----------------6--|--------------------6------|
G|--------------------|---------------------------|
D|--------------------|---------------------------|
A|--------------------|---------------------------|
E|--------------------|---------------------------|

                         SOL DE JUSTICIA...
.  C                C                 F                F
e|-----------------|----------------|-----------------|---------------|
B|-----------------|----------------|-----------------|---------------|
G|-5-5-5-5-5-5-5-5-|5-5-5-5-5-5-5-5-|-----------------|---------------|
D|-5-5-5-5-5-5-5-5-|5-5-5-5-5-5-5-5-|-3-3-3-3-3-3-3-3-|3-3-3-3-3-3-3-3|
A|-3-3-3-3-3-3-3-3-|3-3-3-3-3-3-3-3-|-3-3-3-3-3-3-3-3-|3-3-3-3-3-3-3-3|
E|-----------------|----------------|-1-1-1-1-1-1-1-1-|1-1-1-1-1-1-1-1|

SE VUELVE A REPETIR DESDE PUEBLOS TODOS


  A LA MONTAÑA MAS ALTA....
   C                          F
e|-------------------------|-------- -----------------------------|
B|-------------------------|--------------------------------------|
G|-------------------------|--------------------------------------|
D|-5-5-5-5-5-5-5-5-5-5-5-5-|--11-11-11-11-11-11-11-11-11-11-11-11-|
A|-3-3-3-3-3-3-3-3-3-3-3-3-|--9--9--9--9--9--9--9--9--9--9--9--9--|
E|-------------------------|--------------------------------------|

                            YO    CANTARE
   C                         F
e|-------------------------|-------------------------------------|
B|-------------------------|-------------------------------------|
G|-------------------------|-------------------------------------|
D|-5-5-5-5-5-5-5-5-5-5-5-5-|-11-11-11-11-11-11-11-11-11-11-11-11-|
A|-3-3-3-3-3-3-3-3-3-3-3-3-|-9--9--9--9--9--9--9--9--9--9--9--9--|
E|-------------------------|-------------------------------------|
  A LA MONTAÑA MAS ALTA...
   C                          F
e|--------------------------|-------------------------------------|
B|--------------------------|-------------------------------------|
G|--------------------------|-------------------------------------|
D|-5-5-5-5-5-5-5-5-5-5-5-5--|-11-11-11-11-11-11-11-11-11-11-11-11-|
A|-3-3-3-3-3-3-3-3-3-3-3-3--|-9--9--9--9--9--9--9--9--9--9--9--9--|
E|--------------------------|-------------------------------------|

                                      YO    DANZARE
   C                         F
e|-------------------------|-------------------------------------|
B|-------------------------|-------------------------------------|
G|-------------------------|-------------------------------------|
D|-5-5-5-5-5-5-5-5-5-5-5-5-|-11-11-11-11-11-11-11-11-11-11-11-11-|
A|-3-3-3-3-3-3-3-3-3-3-3-3-|-9--9--9--9--9--9--9--9--9--9--9--9--|
E|-------------------------|-------------------------------------|

  CORO:

   C                         Bm
e|-------------------------|-------------------------|
B|-------------------------|-------------------------|
G|-5-5-5-5-5-5-5-5-5-5-5-5-|-4-4-4-4-4-4-4-4-4-4-4-4-|
D|-5-5-5-5-5-5-5-5-5-5-5-5-|-4-4-4-4-4-4-4-4-4-4-4-4-|
A|-3-3-3-3-3-3-3-3-3-3-3-3-|-2-2-2-2-2-2-2-2-2-2-2-2-|
E|-------------------------|-------------------------|

   Am          G             F
e|-------------------------|-------------------------|
B|-------------------------|-------------------------|
G|-------------------------|-------------------------|
D|-7-7-7-7-7-7-5-5-5-5-5-5-|-3-3-3-3-3-3-3-3-3-3-3-3-|
A|-7-7-7-7-7-7-5-5-5-5-5-5-|-3-3-3-3-3-3-3-3-3-3-3-3-|
E|-5-5-5-5-5-5-3-3-3-3-3-3-|-1-1-1-1-1-1-1-1-1-1-1-1-| X2

   PROSEGUIREMOS EN CONOCERTE....
   C                         Bm
e|-------------------------|-------------------------|
B|-------------------------|-------------------------|
G|-------------------------|-------------------------|
D|-5-5-5-5-5-5-5-5-5-5-5-5-|-4-4-4-4-4-4-4-4-4-4-4-4-|
A|-3-3-3-3-3-3-3-3-3-3-3-3-|-2-2-2-2-2-2-2-2-2-2-2-2-|
E|-------------------------|-------------------------|

   Am          G             F
e|-------------------------|-------------------------|
B|-------------------------|-------------------------|
G|-------------------------|-------------------------|
D|-------------------------|-------------------------|
A|-7-7-7-7-7-7-5-5-5-5-5-5-|-3-3-3-3-3-3-3-3-3-3-3-3-|
E|-5-5-5-5-5-5-3-3-3-3-3-3-|-1-1-1-1-1-1-1-1-1-1-1-1-| X2


   A LA MONTAÑA MAS ALTA....
   C                          F
e|-------------------------|-------- -----------------------------|
B|-------------------------|--------------------------------------|
G|-------------------------|--------------------------------------|
D|-5-5-5-5-5-5-5-5-5-5-5-5-|--11-11-11-11-11-11-11-11-11-11-11-11-|
A|-3-3-3-3-3-3-3-3-3-3-3-3-|--9--9--9--9--9--9--9--9--9--9--9--9--|
E|-------------------------|--------------------------------------|

                            YO    CANTARE
   C                         F
e|-------------------------|-------------------------------------|
B|-------------------------|-------------------------------------|
G|-------------------------|-------------------------------------|
D|-5-5-5-5-5-5-5-5-5-5-5-5-|-11-11-11-11-11-11-11-11-11-11-11-11-|
A|-3-3-3-3-3-3-3-3-3-3-3-3-|-9--9--9--9--9--9--9--9--9--9--9--9--|
E|-------------------------|-------------------------------------|

   A LA MONTAÑA MAS ALTA...
   C                          F
e|--------------------------|-------------------------------------|
B|--------------------------|-------------------------------------|
G|--------------------------|-------------------------------------|
D|-5-5-5-5-5-5-5-5-5-5-5-5--|-11-11-11-11-11-11-11-11-11-11-11-11-|
A|-3-3-3-3-3-3-3-3-3-3-3-3--|-9--9--9--9--9--9--9--9--9--9--9--9--|
E|--------------------------|-------------------------------------|

                                      YO    GRITARE
   C                         F
e|-------------------------|-------------------------------------|
B|-------------------------|-------------------------------------|
G|-------------------------|-------------------------------------|
D|-5-5-5-5-5-5-5-5-5-5-5-5-|-11-11-11-11-11-11-11-11-11-11-11-11-|
A|-3-3-3-3-3-3-3-3-3-3-3-3-|-9--9--9--9--9--9--9--9--9--9--9--9--|
E|-------------------------|-------------------------------------|

  A LA MONTAÑA MAS ALTA...
  C                          F
e|-------------------------|-------- -----------------------------|
B|-------------------------|--------------------------------------|
G|-5-5-5-5-5-5-5-5-5-5-5-5-|--11-11-11-11-11-11-11-11-11-11-11-11-|
D|-5-5-5-5-5-5-5-5-5-5-5-5-|--11-11-11-11-11-11-11-11-11-11-11-11-|
A|-3-3-3-3-3-3-3-3-3-3-3-3-|--9--9--9--9--9--9--9--9--9--9--9--9--|
E|-------------------------|--------------------------------------|

                            YO    CANTARE
   C                         F
e|-------------------------|-------------------------------------|
B|-------------------------|-------------------------------------|
G|-5-5-5-5-5-5-5-5-5-5-5-5-|-11-11-11-11-11-11-11-11-11-11-11-11-|
D|-5-5-5-5-5-5-5-5-5-5-5-5-|-11-11-11-11-11-11-11-11-11-11-11-11-|
A|-3-3-3-3-3-3-3-3-3-3-3-3-|-9--9--9--9--9--9--9--9--9--9--9--9--|
E|-------------------------|-------------------------------------|


 A LA MONTAÑA MAS ALTA...
   C                          F
e|--------------------------|-------------------------------------|
B|--------------------------|-------------------------------------|
G|-5-5-5-5-5-5-5-5-5-5-5-5--|-11-11-11-11-11-11-11-11-11-11-11-11-|
D|-5-5-5-5-5-5-5-5-5-5-5-5--|-11-11-11-11-11-11-11-11-11-11-11-11-|
A|-3-3-3-3-3-3-3-3-3-3-3-3--|-9--9--9--9--9--9--9--9--9--9--9--9--|
E|--------------------------|-------------------------------------|

                                      YO    DANZARE
   C                         F
e|-------------------------|-------------------------------------|
B|-------------------------|-------------------------------------|
G|-5-5-5-5-5-5-5-5-5-5-5-5-|-11-11-11-11-11-11-11-11-11-11-11-11-|
D|-5-5-5-5-5-5-5-5-5-5-5-5-|-11-11-11-11-11-11-11-11-11-11-11-11-|
A|-3-3-3-3-3-3-3-3-3-3-3-3-|-9--9--9--9--9--9--9--9--9--9--9--9--|
E|-------------------------|-------------------------------------|

  CORO:
  C                         Bm
e|-------------------------|-------------------------|
B|-------------------------|-------------------------|
G|-5-5-5-5-5-5-5-5-5-5-5-5-|-4-4-4-4-4-4-4-4-4-4-4-4-|
D|-5-5-5-5-5-5-5-5-5-5-5-5-|-4-4-4-4-4-4-4-4-4-4-4-4-|
A|-3-3-3-3-3-3-3-3-3-3-3-3-|-2-2-2-2-2-2-2-2-2-2-2-2-|
E|-------------------------|-------------------------|

   Am          G             F
e|-------------------------|-------------------------|
B|-------------------------|-------------------------|
G|-------------------------|-------------------------|
D|-7-7-7-7-7-7-5-5-5-5-5-5-|-3-3-3-3-3-3-3-3-3-3-3-3-|
A|-7-7-7-7-7-7-5-5-5-5-5-5-|-3-3-3-3-3-3-3-3-3-3-3-3-|
E|-5-5-5-5-5-5-3-3-3-3-3-3-|-1-1-1-1-1-1-1-1-1-1-1-1-| X2

   PROSEGUIREMOS EN CONOCERTE....
   C                         Bm
e|-------------------------|-------------------------|
B|-------------------------|-------------------------|
G|-------------------------|-------------------------|
D|-5-5-5-5-5-5-5-5-5-5-5-5-|-4-4-4-4-4-4-4-4-4-4-4-4-|
A|-3-3-3-3-3-3-3-3-3-3-3-3-|-2-2-2-2-2-2-2-2-2-2-2-2-|
E|-------------------------|-------------------------|

   Am          G             F
e|-------------------------|-------------------------|
B|-------------------------|-------------------------|
G|-------------------------|-------------------------|
D|-------------------------|-------------------------|
A|-7-7-7-7-7-7-5-5-5-5-5-5-|-3-3-3-3-3-3-3-3-3-3-3-3-|
E|-5-5-5-5-5-5-3-3-3-3-3-3-|-1-1-1-1-1-1-1-1-1-1-1-1-| X2


 CORO:
  C                         Bm
e|-------------------------|-------------------------|
B|-------------------------|-------------------------|
G|-------------------------|-------------------------|
D|-5-5-5-5-5-5-5-5-5-5-5-5-|-4-4-4-4-4-4-4-4-4-4-4-4-|
A|-3-3-3-3-3-3-3-3-3-3-3-3-|-2-2-2-2-2-2-2-2-2-2-2-2-|
E|-------------------------|-------------------------|

   Am          G             F
e|-------------------------|-------------------------|
B|-------------------------|-------------------------|
G|-------------------------|-------------------------|
D|-------------------------|-------------------------|
A|-7-7-7-7-7-7-5-5-5-5-5-5-|-3-3-3-3-3-3-3-3-3-3-3-3-|
E|-5-5-5-5-5-5-3-3-3-3-3-3-|-1-1-1-1-1-1-1-1-1-1-1-1-| X2

ESPERO QUE LES AYUDE QUE DIOS LES BENDIGA CUALQUIER DUDA DECIRME EN MI FACE :

            
            
Suggest correction
Creating personal tab
Creating personal tab
You can edit any tab online and save it as your Personal.

You can edit, replace or remove any tab part or add personal notes – all changes will be seen only by you.

Personal tabs can be accessed anytime from any device, even offline.
Learn more »
Give kudos to tab author, rate the tab!
1 2 3 4 5
comments
print report bad tab
guest
Wanna post a correction for this tab? Suggest correction