Oops, an error
Loading. Please wait.

Ring Around The Moon tab

1,275 views 1 this week
no commentswrite comment
1 2 3 4 5
3 more votes to show rating
add to favorites
×
Save as Personal and add changes to this tab that will be seen only by you. Learn more ›
×
You can save this tab as Personal to edit and correct it or add notes. All changes will be seen only by you. Learn more »
launch autoscroll
font size
0
reset
how to read this tab
guitar tuner
edit
Autoscroll
slow
fast
+/-
esc
set tempo
stop
Artist: Construction and Destruction
Album: The Volume Wars
Song: Ring Around the Moon

Tab typed by: Xander van Trigt (xandyxandicus@hotmail.com)

standard tuning

D
d dududu dduudu x4
  I saw the ring around the moon. I wanted to show

e -------------                  e -------------|
B -------------                  B -------------|
G -------------                  G -------------|
D -7/9---9-9-9- x2               D -5/7---7-7-7-| x2
A -7/9---9-9-9-                  A -5/7---7-7-7-|
E -5/7pm-7-7-7-                  E -3/5pm-5-5-5-|
 you           but you already saw it

D
  I had nothing to do. So I made you this

e -------------           e -------------|
B -------------           B -------------|
G -------------           G -------------|
D -7/9---9-9-9- x2        D -5/7---7-7-7-| x2
A -7/9---9-9-9-           A -5/7---7-7-7-|
E -5/7pm-7-7-7-           E -3/5pm-5-5-5-|
ring           took some time


              D
              d duuduu dududu
but I made time

e -----------------|
B -----------------|
G -----------------|
D -5-5-5-5-5-5-5-5-|  x4
A -5-5-5-5-5-5-5-5-|
E -3-3-3-3-3-3-3-3-|
It only gets destroyed. It only wanders away. There's a

D                      A       D
du pm d u du pm d u du d duudu du pm d u du pm d u du
suction,  destruction          simmer and reduction

D
dduudu dduudu dduudu dduudu
I tied a string around it too. Often we think a-

e -------------              e -------------|
B -------------              B -------------|
G -------------              G -------------|
D -7/9---9-9-9- x2           D -5/7---7-7-7-| x2
A -7/9---9-9-9-              A -5/7---7-7-7-|
E -5/7pm-7-7-7-              E -3/5pm-5-5-5-|
like           and often we don't

D
dduudu dduudu dduudu dduudu
  No surprises in the news, just

e -------------                        e -------------|
B -------------                        B -------------|
G -------------                        G -------------|
D -7/9---9-9-9- x2                     D -5/7---7-7-7-| x2
A -7/9---9-9-9-                        A -5/7---7-7-7-|
E -5/7pm-7-7-7-                        E -3/5pm-5-5-5-|
paper         and no one's going to the moon

                     D
                     dduudu dududu
and what is coming soon

e -----------------|
B -----------------|
G -----------------|
D -5-5-5-5-5-5-5-5-|  x4
A -5-5-5-5-5-5-5-5-|
E -3-3-3-3-3-3-3-3-|
It only gets destroyed. Only blows away. There's a

D                      A       D
du pm d u du pm d u du d duudu du pm d u du pm d u d
suction,  reduction.           Construction and Destruction!

D  Bm D  D  Bm D  x4
dd d  d, dd d  d
You got your finger on the moon. We'll get to

e -------------                   e -------------  e -14b^--|
B -------------                B ---------------------------|
G -------------                G ---------------------------|
D -7/9---9-9-9- x2             D -5/7---7-7-7---------------| x2
A -7/9---9-9-9-                A -5/7---7-7-7---------------|
E -5/7pm-7-7-7-                E -3/5pm-5-5-5---------------|
 see           what you want us to

D  Bm D  D  Bm D  x4
dd d  d, dd d  d
I've only played your eyes in you (?) I'm the

e -------------                        e -------------|
B -------------                        B -------------|
G -------------                        G -------------|
D -7/9---9-9-9- x2                     D -5/7---7-7-7-| x2
A -7/9---9-9-9-                        A -5/7---7-7-7-|
E -5/7pm-7-7-7-                        E -3/5pm-5-5-5-|
mechanic(?)   but the ideas are born to you          That's what you do

e -----------------  e -18b^--|
B ----------------------------|
G ----------------------------|
D -5-5-5-5-5-5-5-5------------|  x4
A -5-5-5-5-5-5-5-5------------|
E -3-3-3-3-3-3-3-3------------|
Ahh ah ah ah ah ah ah

e ------------------------------------------------------------------|
B ------------------------------------------------------------------|
G ----------7-------------------------------------------------------|
D -9--9--9--7-7-7-7-7-7-7-7-7--5------------------------------------|
A -9--9--9--5-7-7-7-7-7-7-7-7--5------------------------------------|
E -7pm7pm7pm--5-5-5-5-5-5-5-5--3------------------------------------|
                            du d d d du dud u du, d d d du dud u du

e ---------------------------------------------------------------------|
B ---------------------------------------------------------------------|
G -------------7-------------------------------------------------------|
D -9--9--9--9--7-7-7-7-7-7-7-7-7--5------------------------------------|
A -9--9--9--9--5-7-7-7-7-7-7-7-7--5------------------------------------|
E -7pm7pm7pm7pm--5-5-5-5-5-5-5-5--3------------------------------------|
                               du d d d du dud u du, d d d du dud u du

e ------------------------------------------------------------------------|
B ------------------------------------------------------------------------|
G ----------------7-------------------------------------------------------|
D -9--9--9--9--9--7-7-7-7-7-7-7-7-7--5------------------------------------|
A -9--9--9--9--9--5-7-7-7-7-7-7-7-7--5------------------------------------|
E -7pm7pm7pm7pm7pm--5-5-5-5-5-5-5-5--3------------------------------------|
                                  du d d d du dud u du, d d d du dud u du

e ---------------------------------------------------------------------------|
B ---------------------------------------------------------------------------|
G -------------------7-------------------------------------------------------|
D -9--9--9--9--9--9--7-7-7-7-7-7-7-7-7--5------------------------------------|
A -9--9--9--9--9--9--5-7-7-7-7-7-7-7-7--5------------------------------------|
E -7pm7pm7pm7pm7pm7pm--5-5-5-5-5-5-5-5--3------------------------------------|
                                     du d d d du dud u du, d d d du dud u du

e ----------------------------------------------------------|
B ----------------------------------------------------------|V-slide onto fret so it rattles
G ----------------------7--------------------------V--------|
D -9--9--9--9--9--9--9--7-7-7-7-7-7-7-7-7-5-------<5--------|
A -9--9--9--9--9--9--9--5-7-7-7-7-7-7-7-7-5-------<5--------|
E -7pm7pm7pm7pm7pm7pm7pm--5-5-5-5-5-5-5-5-3-------<3-----0--| D ~ ~ ~ ~  D
                                          d d d du d d d d  d         (d)   END


 *Open to any corrections or comments.

www.myspace.com/davidtrenaman
Suggest correction
Creating personal tab
Creating personal tab
You can edit any tab online and save it as your Personal.

You can edit, replace or remove any tab part or add personal notes – all changes will be seen only by you.

Personal tabs can be accessed anytime from any device, even offline.
Learn more »
Give kudos to tab author, rate the tab!
1 2 3 4 5
comments
print report bad tab
guest
You may want to rate the tab now too:
select rating
Wanna post a correction for this tab? Suggest correction