Oops, an error
Loading. Please wait.

Vamos Pa'lante tab

39 views 1 this week
1 commentread comment
1 2 3 4 5
3 more votes to show rating
add to favorites
×
Save as Personal and add changes to this tab that will be seen only by you. Learn more ›
×
You can save this tab as Personal to edit and correct it or add notes. All changes will be seen only by you. Learn more »
launch autoscroll
font size
0
reset
how to read this tab
guitar tuner
edit
Autoscroll
slow
fast
+/-
esc
set tempo
stop
              Am                                G
e-------------------------------|----------------------------
B---------1------1----2---1-----|----------3---------1-------
G----2------2-------------------|------4-------1---2----2----
D-------------------------------|----------------------------
A-------------------------------|----------------------------
E-------------------------------|----------------------------

Am                         G              Am
Si a veces sientes que el mundo te viene encima
             G              Am      F
que tú no puedes ya con tu vida no,
                   E
no te des por vencido
Am                G                Am
Y si la gente te dice que tú no puedes
           G              Am
dile que a ti nadie te detiene
    F                E
no,   y sigue tu camino
F                       Am
Porque con Cristo a tu lado
            E               Am
no tienes excusa tú vas a vencer
F                   Am
esa cruz no fue en vano
               F               G
El te da la fuerza si puedes creer

Am          F        G             E
Vamos pa lante mi gente, tu y yo somos diferentes
Am          F        G               E
vamos pa lante mi gente, con Jesús somos mas fuertes


Am         F        G                 E
Vamos pa lante mi gente, vamos contra la corriente
Am         F        G                     E
vamos pa lante mi gente, nunca pa tras siempre pal frente

Solo:  //Am       G//
              Am                                G
e-------------------------------|-----------------------------
B---------1------1----2---1-----|----------3---------1--------
G----2------2-------------------|------4-------1---2----2-----
D-------------------------------|-----------------------------
A-------------------------------|-----------------------------
E-------------------------------|-----------------------------


Am                 G                  Am
Si tus sueños de pronto no se han cumplido
             G                 Am      F
y lo que anhelabas no te ha salido no,
                E
no andes deprimido
Am                G                 Am
En la vida no siempre es como tú quieres
              G                 Am           F
confía en Jesús aunque no lo entiendes y tú,
             E
saldrás bendecido
///Am///
F
Tu no te das cuenta que vas dando
                G
vueltas y confundido cuando El no
         Am                   F   G
esta contigo te encuentras perdido
F
El alumbra cada paso que tu das en
     G                       E
tu camino no lo pienses más déjate llevar

            
            
Suggest correction
Creating personal tab
Creating personal tab
You can edit any tab online and save it as your Personal.

You can edit, replace or remove any tab part or add personal notes – all changes will be seen only by you.

Personal tabs can be accessed anytime from any device, even offline.
Learn more »
Give kudos to tab author, rate the tab!
1 2 3 4 5
comments
print report bad tab
1 comment total.
0 reply
mateoib 10 Mar 13, 2016 01:51 PM

El intro va asî
-------------------------
---1---1-3-1---3-------1-
-2---2-------4---1-2-4---
-------------------------
-------------------------
-------------------------

guest
Wanna post a correction for this tab? Suggest correction