Oops, an error
Loading. Please wait.

Idle Hands bass

121 views 3 this week
no commentswrite comment
1 2 3 4 5
3 more votes to show rating
add to favorites
×
Save as Personal and add changes to this tab that will be seen only by you. Learn more ›
×
You can save this tab as Personal to edit and correct it or add notes. All changes will be seen only by you. Learn more »
launch autoscroll
font size
0
reset
guitar tuner
edit
Autoscroll
slow
fast
+/-
esc
set tempo
stop
Guitars pan on their own to begin.

D#|----------5----------------|
A#|---------------------------|
F |----------------4----------|
A#|10000000----3-0---5-0------|
   ^.......

D#|----------7---7-7---------------|
A#|--------------------3-----2-----|
F |--------------------------------|
A#|10000000----0-----0---0-1---1-0-|
   ^......     .     .

Repeat these two sections

(0:14 - solo guitar first then full band)

D#|------------------|
A#|3-----2-----------|
F |------------------|
A#|--0-1---1-0--0000-| (guitar natural harmonic)
                ....
(0:17)
D#|--------------------------------|
A#|3-----2-----2-----2-------------| (play twice)
F |------------------------2-------|
A#|--0-1---1-0---4-1---1-0---4-0-1-|

(0:24)
D#|--------------------------------|
A#|--------------------------------| (play twice)
F |2-----2-----2-----2-----2-2-1-1-|
A#|--111---111---111---111---------|
     ...   ...   ...   ...

(0:30)
D#|--------------------------------|
A#|3-----2-----2-----2-------------| (play twice)
F |------------------------2-------|
A#|--0-1---1-0---4-1---1-0---4-0-1-|

D#|-----------------|
A#|-----------------|
F |-----------------|
A#|000-000--------0-|
   ... ...

Next notes are just opens on the bottom string.

(1:00)
D#|------------------------------------------------|
A#|3-----2-----------------------------------------|
F |--------------------------------------------333-|
A#|--0-1---1-0-1>2-222222222222225-5555553-333-----|

D#|-------------------------------------|
A#|-------------------------------------|
F |-------------------------------------|
A#|2-222222222222225-5555553-333-222----|
                                 ...

D#|-------------------------------------|
A#|-------------------------------------|
F |------------------------------333----|
A#|2-222222222222225-5555553-333--------|

D#|-------------------------------------|
A#|-------------------------------------|
F |-------------------------------------|
A#|2-222222222222225-5555553-333-555----|
                                 ...

D#|-------------------------------------|
A#|-------------------------------------| (play twice)
F |-------------------------------------|
A#|2-22-222-222-2222-22-222-5555-333----|

D#|-------------------------------------|
A#|-------------------------------------|
F |-------------------------------------|
A#|3-33-3-3-3-3-3-3-3~let-ring----------|

(guitars pan without the bass)

(1:42)
D#|---------------------------------|
A#|---------------------------------| (play twice)
F |2-----2-----------2-----2-2-1-1--|
A#|--0-1---1-0-1-0-1---1-0----------|

D#|---------------------------------|
A#|---------------------------------|
F |---------------------------------|
A#|000000-----000000-----00---00----|
   ......     ......     ..   ..

OR DO YOU EVEN EXIST!?

The whole next section up as far as the "made us believe!"
break is just open notes on the bottom string. Easy.

(2:30)
D#|---------------------------------------------------------------|
A#|---------------------------------------------------------------|
F |---------------------------------------------------4-4-4-------|
A#|0-0-0-0-0-0-0-0-0-0-0-0-0-000-000-0-0-0-0-0-0-0-0--------1-1-1-|
   . . . . . . . . . . . . . ... ... . . . . . . . .

D#|---------------------------------------------------------------|
A#|----0----------------------------------------------------------|
F |--3---3--------------------------------------------4-4-4-------|
A#|4-------0-0-0-0-0-0-0-0-0-000-000-0-0-0-0-0-0-0-0--------1-1-1-|
           . . . . . . . . . ... ... . . . . . . . .

Play these two sections twice.
I'm not sure of the notes the bass plays over the section 3:02 - 3:13

3:14 - again just opens on the bottom string
       in line with the second guitar.

3:37 - solo guitar, full band comes in at 3:42

D#|-------------------------------------------|
A#|--1----------------------------------------|
F |------------------333333333333333333333333-|
A#|0---4-1-0--000000--------------------------|
         ^    ......

D#|------------------------------------------------|
A#|---------------------------------2--------------|
F |---------3333333333333333-----------------------|
A#|00000000------------------1111-1---4-1-0--------|
   ........                             ^

D#|--------------------------------------------------------|
A#|--------------------------------------------------------|
F |-------101010101010101010101010101010101010101010101010-|
A#|000000--------------------------------------------------|
   ......

D#|--------------------------------------------------------------------------------|
A#|-----------------------------------------------------------------2--------------|
F |---------101010101010101010101010101010101010101010101010-----------------------|
A#|00000000--------------------------------------------------1111-1---4-1-0--------|
   ........                                                             ^

Those are 10's not 1's and 0's haha.

            
            
Suggest correction
Creating personal tab
Creating personal tab
You can edit any tab online and save it as your Personal.

You can edit, replace or remove any tab part or add personal notes – all changes will be seen only by you.

Personal tabs can be accessed anytime from any device, even offline.
Learn more »
Give kudos to tab author, rate the tab!
1 2 3 4 5
comments
print report bad tab
guest
Wanna post a correction for this tab? Suggest correction