Oops, an error
Loading. Please wait.

Land Of The Free Bass Tab

72 views 1 this week
no commentswrite comment
1 2 3 4 5
2 more votes to show rating
add to favorites
launch autoscroll
font size
0
reset
guitar tuner
Autoscroll
slow
fast
+/-
esc
set tempo
stop
Help us to improve Ultimate-Guitar.com Take our survey!
×
Author
Difficulty
Tuning
intermediate
A# F A# D# G C
KEY:
. = palm mute
~ = let ring
> = slide


for this first section it alternates between a
palm muted down stroke then an unmuted up stroke

D#|----------------------------------------------|
A#|----------------------------------------------|
F |--5-------5-------5-------5-------5-------5-7-|
A#|0---0-0-0---0-0-0---0-0-0---0-0-0---0-0-0-----|
   .   .   .   .   .   .   .   .   .   .   .

D#|----------------------------------------|
A#|----------------------------------------|
F |------7-------7-------7-------7-------7-|
A#|3-3-3---3-3-3---3-3-3---3-3-3---3-3-3---|
   .   .   .   .   .   .   .   .   .   .

D#|--------------------------------------------------|
A#|--------------------------------------------------|
F |--------------------------------------------------|
A#|5-5--5-5--555-5--5-5--555-5--5-5--555-5--5-5--555-|
   .    .    ...    .    ...    .    ...    .    ...

D#|----------------------------------------------------------------|
A#|----------------------------------------------------------------|
F |----------------------------------------------------------------|
A#|8-8--8-8--888-8--8-8--888--10-10--10-10--101010-10--10-10--1010-|
   .    .    ...    .    ...  .      .      . . .      .      . .

-----------------------Repeat above section------------------------

(0:28)

D#|----------------------|
A#|----------------------|
F |----------------------|
A#|0~----6~----5~--------|

D#|---------------------------------------------------------------|
A#|---------------------------------------------------------------|
F |-----------------------------------------------------6-6-6-6-6-|
A#|6-6-6-6--666666--6-6-6-6--666666--6-6-6-6--666666--0-----------|
            ......           ......           ......

(0:38)

D#|----------------------------------------------------------------|
A#|----------------------------------------------------------------|
F |----------------------------------------------------------------|
A#|0-0-0-0-0-0-0-0-0-0-0-0-0-0-0-0-6-6-6-6-6-6-6-6-6-6-6-6-6-6-6-6-|

D#|----------------------------------------------------------------|
A#|----------------------------------------------------------------|
F |--------------------------------------------------6-----1-----0-|
A#|0-0-0-0-0-0-0-0-0-0-0-0-0-0-0-0-6-6-6-6-6-6-6-6-3---3-0---4-0-1-|

(0:49)

D#|------------------------------------------------------------|
A#|------------------------------------------------------------|
F |000--000-0-0--000--000-0-0--000--000-0-0--000-0-0--000-0----|
A#|111--111-1-1--111--111-1-1--111--111-1-1--111-1-1--111-1-0~-|
   ...  ... . .  ...  ... . .  ...  ... . .  ... . .  ... .

D#|---------------------------------------------------------------|
A#|---------------------------------------------------------------|
F |000-0-0--000--000-0-0--000--000-0-0--000-0-0--000-0-0--000-0-0-|
A#|111-1-1--111--111-1-1--111--111-1-1--111-1-1--111-1-1--111-1-1-|

D#|--------------------------------------------------------------|
A#|---reverse-------------------------guitar----------------drum-|
F |----snare----000-0-0--000-0-0-------pan-------000-0-0----fill-|
A#|-------------111-1-1--111-1-1-----------------111-1-1---------|
                ... . .  ... . .                 ... . .

D#|---------------------------------------------------------|
A#|---------------------------------------------------------|    Slide is
F |6------------------------------------------------------0-|  at about
A#|---0~----------------------12>1--0~--------------------0-|      1:15
                                                          .

(1:21)

D#|----------------------9-9-9-------------------------------|
A#|----------------------------------------------------------|
F |6----------------------------6----------------------------|
A#|---0---0-0-1>8--0-0-0-----------0---0-0-0-1>8-0-1>8-0-1>8-|
          . .      . . .               . . .     .     .

D#|------------------------9-9-9-------------------------------|
A#|------------------------------------------------------------|
F |6------------------------------6----------------------------|
A#|---0---0-0-0-1>8--0-0-0-----------0---0-0-0-1>8-0-1>8-0-0---|
          . . .      . . .               . . .     .     . .

(1:33)

D#|-----------------------------------------------------------|
A#|-----------------------------------------------------------|
F |6------------------------------6---------------------------|
A#|---0--0-0-0-0-0-0-0-0-0-0-0-0-----0--0-0-0-1>8-0-1>8-0-1>8-|
         . . . . . . . . . . . .        . . .     .     .

D#|-------------------------------------------------------|
A#|-------------------------------------------------------|
F |6------------------------------6-----------------------|
A#|---0--0-0-0-0-0-0-0-0-0-0-0-0-----0--0-0-0-1>8-0-1>8-0-|
         . . . . . . . . . . . .        . . .     .     .

Guitars do one slide each panned

D#|------------------------|
A#|------------------------|  guitar lead part
F |------------------------|     on it's own
A#|1>8-0-1>8-0-1>8-0-1>8-0-|
       .     .     .     .

D#|--------------------------------------|
A#|--------------------------------------|
F |--------------------------------------|
A#|2----2-2-2-------2-------2-2-2----2-3-|

More guitar pans

D#|------------------------------|
A#|------------------------------|
F |------------------------------|
A#|2-2-2------2-----2-2-2----2-3-|

D#|--------------------------------------|
A#|--------------------------------------|
F |--------------------------------------|
A#|0----0-0-0-------0-------0--0---------|

D#|--------------------------------------|
A#|--------------------------------------|
F |--------------------------------------|
A#|2----2-2-2-------2-------2-2-2----2-3-|

(2:13)

From here until the drum roll kicks in
the bass plays this:

D#|----------------|
A#|----------------|
F |----------------|
A#|7-------5-------|

Then from the drum roll until the end of
the song the bass plays this:

D#|-------------------------------|
A#|-------------------------------|
F |-------------------------------|
A#|7-------5-------3--------------|

Timings and strumming patterns on both are
easy enough just listen for when the note changes.
Suggest correction
Give kudos to tab author, rate the tab!
1 2 3 4 5
comments
print report bad tab
guest
You may want to rate the tab now too:
select rating
Wanna post a correction for this tab? Suggest correction