Oops, an error
Loading. Please wait.

Trials Bass Tab

56 views 1 this week
no commentswrite comment
1 2 3 4 5
3 more votes to show rating
add to favorites
launch autoscroll
font size
0
reset
guitar tuner
Autoscroll
slow
fast
+/-
esc
set tempo
stop
Help us to improve Ultimate-Guitar.com Take our survey!
×
Author
Difficulty
Tuning
novice
A# F A# D# G C
Opening riff

D#|------------------------------------------------------|
A#|------------------------------------------------------|
F |2------2-----1------3-------2------2------------1-----|
A#|-1-0----1-0-----0-1---1-0----1-0----1-0--1--0-3---3---|

There are a few open notes here, easy to work out,
Then the chug after is:

D#|------------------------------------------------------|
A#|------------------------------------------------------|
F |------------------------------------------------------|
A#|00---00-00-00--00------00-00-00--00--00---000---000---|
   ..   .. .. ..  ..      .. .. ..  ..  ..   ..    ..

Then second time through the chug the little run on the end is:

D#|---------------------------------|
A#|---------------------------------|
F |1---------3--66-66-66-66---------|
A#|--4-0-1-4-----------------0-0/12-|

Next riff:

D#|------------------------------------------------------------------|
A#|----------------------------------------------------------3-------|
F |----------------------------1-------------------------------1-----|
A#|4-111-0-0---4-111-0-0---4-0---0---4-111-0-0---4-111-0-0-------4-1-|

D#|--------------------------------------------------------------------|
A#|----------------------------------------------------------3-------1-|
F |----------------------------1-------------------------------1-----1-|
A#|4-111-0-0---4-111-0-0---4-0---0---4-111-0-0---4-111-0-0-------4-0-1-|

Next chugging riff is easy enough to work out, the bends are on the first fret
then the closing riff on that section is:

D#|-------------------------------------|
A#|-------------------------------------|
F |---5----1-------0-0-00-0-00-0-00-0-0-|
A#|0----0----0--3--1-1-11-1-11-1-11-1-1-|
                   . . .. . .. . .. . .

Next chug:

D#|----------------------------------------------------------------------------| 
A#|----------------------------------------------------------------------------|
F |0000000--111-1-1-111-111-1-1-111--0000000--111-1-1-111-111-1-1-111--0--0--0-| (x 2)
A#|0000000--000-0-0-000-000-0-0-000--0000000--000-0-0-000-000-0-0-000--1--1--1-|

Bass doesn't play anything through the next section,
but if you wanna jam along the notes are:

D#|-----------|
A#|-----------|
F |12-then-10-|
A#|-----------|

Then the section after is just chugging with those notes in between:

D#|---------------------------------------|
A#|---------------------------------------|
F |12--------12-----12---------12------12-|
A#|---00-00-----000-----00-00------000----|

Then obviously it drops down to 10.

D#|-------------------------------------------------------------------| (x 4)
A#|----------------------------7-8------------------------------------|
F |--10----10--------10------5--------5----5--------5-----------------|
A#|7-----7-----0-7-7----0--8--------3----3----0-2-3----0--------------|

Bass doesn't play the little high run on the end of that riff.

Strumming for the next riff is easy as hell, and the notes are:

D#|-----------------|
A#|-----------------|
F |-----------------|
A#|3--5--7---5---10-|

Then the end is just:

D#|---------------------|
A#|---------------------|
F |---------------------|
A#|3-3-3------3-3-3~----|
              . .
Suggest correction
Give kudos to tab author, rate the tab!
1 2 3 4 5
comments
print report bad tab
guest
You may want to rate the tab now too:
select rating
Wanna post a correction for this tab? Suggest correction