Oops, an error
Loading. Please wait.

Viento De Tormenta tab

16 views 1 this week
no commentswrite comment
1 2 3 4 5
3 more votes to show rating
add to favorites
×
Save as Personal and add changes to this tab that will be seen only by you. Learn more ›
×
You can save this tab as Personal to edit and correct it or add notes. All changes will be seen only by you. Learn more »
launch autoscroll
font size
0
reset
how to read this tab
guitar tuner
edit
Autoscroll
slow
fast
+/-
esc
set tempo
stop
Transcripcion: Sebastian Valorzi
seba_colon_12@hotmail.com

INTRO:
 [ch]B5[/ch]                 [ch]F#5[/ch]              [ch]G5[/ch]      [ch]FA#5[/ch]
|--------------------------------------------------------------|
|--------------------------------------------------------------|
|--------------------------------------------------------------|
|-4-4-4-4-2-0-2-4--5--4-4-4-4-2-0-2-4-2-0-2-4-2-0---0--2--0----|
|--------------------------------------4----------4--------4-2-|
|--------------------------------------------------------------|

 [ch]B5[/ch]                 [ch]F#5[/ch]              [ch]G5[/ch]         [ch]FA#5[/ch]
|------------------------------------------------------------------
|------------------------------------------------------------------
|------------------------------------------------------------------
|-4-4-4-4-2-0-2-4--5--4-4-4-4-2-0-2-4-2-0-2-4-2-0---7-5-4-5-4---4--
|--------------------------------------4-----------------7---7-5-7-
|------------------------------------------------------------------

--------||
--------||
--------||
--------||
5-4-----||
----5-7-||

[ch]B5[/ch]     [ch]D5[/ch]         [ch]F#5[/ch]
Como la bruma que seduce al mar,
[ch]B5[/ch]     [ch]D5[/ch]        [ch]F#5[/ch]
vas invitando mis ideas a nadar
[ch]G5[/ch]         [ch]D5[/ch]
por los cielos más lejanos
[ch]G5[/ch]                 [ch]F#5[/ch]
de tu encanto y seducción.

[ch]A5[/ch]                  [ch]D5[/ch]   [ch]LA5[/ch]            [ch]RE5[/ch]
Y por el aire vas marcando un camino de color
[ch]B5[/ch]              [ch]D5[/ch]  [ch]A5[/ch]               [ch]RE5[/ch]
un color entremezclado con delirios y pasión

                                          _
[ch]G5[/ch]         [ch]F#5[/ch]        [ch]B5[/ch]     [ch]D5[/ch]       |
VIENTO DE TORMENTA QUE SEPARA EL MAR       |
[ch]G5[/ch]            [ch]F#5[/ch]     [ch]B5[/ch]         [ch]D5[/ch]   |
QUE CONTRUYE EL CIELO IMPOSIBLE DE VOLAR.  |ESTRIBILLO
[ch]G5[/ch]         [ch]F#5[/ch]        [ch]B5[/ch]     [ch]D5[/ch]       |
VIENTO DE TORMENTA QUE SEPARA EL MAR       |
[ch]A5[/ch]                       [ch]F#5[/ch]             |
QUE VOLTEA EL ÁRBOL TAN TEMIBLE DE DOBLAR._|


INTER:
|--------------------------------
|--------------------------------
|--------------------------------
|--------------------------------
|--0-2-0-2---2--0-2-4-0-2-4-0-4--
|-3---3----3---------------------

|-------------------------------------------------9-7----||
|-3-3-3-2-2-2-0-0-0-----------------2-0---7-7-10-7----10-||
|-------------------2-2-2-0--2---2-----2-----------------||
|-------------------------------4-4----------------------||
|--------------------------------------------------------||
|--------------------------------------------------------||

BASE SOLO: si5-LA5-SOL5 (X3) FA#5 (BIS)
SOLO:
|-7-7-%--10-8-7-------7-7-%--------7-7-%--10-8-7---------------||
|--------------10-8-7---------------------------10-8-7---7-7-7-||
|--------------------9--------------------------------9-------*||b
|------------------------------7-9----------------------------*||i
|--------------------------9-10--------------------------------||s
|--------------------------------------------------------------||

|-14-14%-||
|--------||
|--------||
|--------||
|--------||
|--------||

Como el cielo enardecido
se quedó mi corazón,
con el roce de tus labios
y la dulzura de tu vos.

Que son alas que me inspiran y me llevan a la cima,
a la cima del encanto de mis sueños más deseados.

ESTRIBILLO

INTER y despues INTRO

            
            
Suggest correction
Creating personal tab
Creating personal tab
You can edit any tab online and save it as your Personal.

You can edit, replace or remove any tab part or add personal notes – all changes will be seen only by you.

Personal tabs can be accessed anytime from any device, even offline.
Learn more »
Give kudos to tab author, rate the tab!
1 2 3 4 5
comments
print report bad tab
guest
Wanna post a correction for this tab? Suggest correction