Oops, an error
Loading. Please wait.

Vino Pero Ya Se Fue chords

8 views 1 this week
no commentswrite comment
1 2 3 4 5
3 more votes to show rating
add to favorites
×
Save as Personal and add changes to this tab that will be seen only by you. Learn more ›
×
You can save this tab as Personal to edit and correct it or add notes. All changes will be seen only by you. Learn more »
launch autoscroll
font size
0
reset
transpose
0
reset
display chords
guitar tuner
edit
Autoscroll
slow
fast
+/-
esc
set tempo
stop
Strumming
There is no strumming pattern for this song yet. and get +5 IQ
seba_colon_12@


INTRO:

     G         Bm        C     Cm
E  ------5-3-2-3-2--5-3-2-3------------------
B  -3--3----------3---------1--3-1-3*-3-1-0--
G ------------------------------------------
D  ------------------------------------------
A  ------------------------------------------

G             Bm           C            G
E  1-0-1-3-1-0-1-0-1-0-1-3-1-0-------------------|
B  ----------------------------2-0--0-2-0--------|
SOL ---------------------------------------2-0----|
D  ------------------------------------------3-2-|
A  ----------------------------------------------|

G          Bm      C
   Vino pero ya se fue, se durmió esperándote
G      Bm           C
   igual que la última vez
G            Bm     C
   Cual paloma que voló  al marcharse abandonó
G     Bm        C
   aquel nido de pasión.

Em                    C      Em               A
   Se olvidó de tus presiones...  se acordó de ella
Em                    C                       Am
   Fueron muchas las razones, llantos y preocupaciones
                       D
   por las que ya no está.

                          _
G     Bm        C      |
   Vino pero ya se fue...  |ESTRIBILLO
G     Bm        C      |
   Vino pero ya se fue... _|

INTRO

   Vino pero ya se fue, como lo solía hacer
   Y ésta fue la última vez
   Dijiste que no te importó, pero todos saben bien
   Que querés volverla a ver.

   El reloj murió temprano... te abrigó el silencio
   Esperarla es en vano ella se fue de tus manos
   Y un vacío te ahogó.

INTER:


fig.1
     G        Bm     C         Cm               G
E  ------------------------------------------------------
B  --------------------------3-1-0-1-3-1-0-1-3-1--10/12--
SOL ----------------4-2-0-0-------------------------------
D  ------------------------------------------------------
A  ----------0-2-2---------------------------------------
E  --3---3-3---------------------------------------------


fig.2

            Bm      C     Cm
E  ----15----------15---------------3-3-----
B  -12----12-10-12----12/8--5-3-3-5-----5-3-
SOL ----------------------------5------------
D  ----------------------------5------------
A  -----------------------------------------
E  -----------------------------------------


fig.3
      G   Bm        C       Cm
E  --*15----14--15-14-12--14-12-11*-8-
B  -----------------------------------
G -----------------------------------
D  -----------------------------------
A  -----------------------------------
E  -----------------------------------

Fig. 4
G     Bm    C       Cm              G
E  -----------------------------7--8---|
B  8---8---8---8----8-----8--8---------|
SOL -7-7-7-7--7---7-7--7-7---7----------|
D  ------------------------------------|
A  ------------------------------------|
E  ------------------------------------|


   Y hoy quieres volverla a ver
   Pero ella se marchó


ESTRIBILLO


G G SOL SOL Bm..,  C
      Vino pero   ya se fue?


INTER 2

    A         C#m        D     Dm        A             C#m
E  ------7-5-4-5-4--7-5-4-5--------------------7-5-4-5-4--7-5-4-5
B  -5--5----------5---------3--5-3-5*-5-3-2--5----------5--------

        D    A
E  ------------------|  A
B  -3--5-3-5*-5-3-2--|


A D E A LA D E LA

                     D E        A
   Don?t go, don?t go, baby don?t go...  X 12

FINAL: F#m

            
            
Suggest correction
Creating personal tab
Creating personal tab
You can edit any tab online and save it as your Personal.

You can edit, replace or remove any tab part or add personal notes – all changes will be seen only by you.

Personal tabs can be accessed anytime from any device, even offline.
Learn more »
Give kudos to tab author, rate the tab!
1 2 3 4 5
comments
print report bad tab
guest
Wanna post a correction for this tab? Suggest correction