Oops, an error
Loading. Please wait.

Fatal tab

version 1
version 1

Whole song

128 views 1 this week
no commentswrite comment
1 2 3 4 5
3 more votes to show rating
add to favorites
×
Save as Personal and add changes to this tab that will be seen only by you. Learn more ›
×
You can save this tab as Personal to edit and correct it or add notes. All changes will be seen only by you. Learn more »
launch autoscroll
font size
0
reset
how to read this tab
guitar tuner
edit
Autoscroll
slow
fast
+/-
esc
set tempo
stop
FATAL (EN VIVO)
(CONTRACORRIENTE) 'CONTRATODO'

lo uniko ke no c bien es la letra
si Alguien me la manda c lo voy agradecer¡¡¡¡
bueno aki les va¡¡¡

PARA MAS TABLATURAS DE CONTRACORRIENTE..INGRESEN A LA KOMUNA..
==>    E|-----------------|------------|-----------------|------------|
B|---------5-------|-------5----|---------3-------|-------3----|
G|-----7-----7---7-|---7-----7--|-----5-----5---5-|---5-----5--|
D|---7---7-----7---|-7---7------|---5---5-----5---|-5---5------|
A|-5---------------|------------|-3---------------|------------|
E|-----------------|------------|-----------------|------------|
                  VAMOS AHY,     YA VIENE VENGANZA ALCOHOLICO¡¡¡
E|---------|---------|--------|---------|
B|-------1-|---1---1-|-----0--|-3-------|
G|-----3---|-----3---|---2----|-0-5-4-5-|
D|---------|---------|--------|---------|
A|-1(p)----|-1-------|-0------|---------|
E|---------|---------|--------|---------|

ESA GENTE BORRACHA, A CELEBRAR POR FIN DE AÑO CARAJO¡¡
                         A JUERGUEAR¡¡¡¡¡ ..VAMOS AHY ESTA ES UNA...
E|-----------------|------------|-----------------|------------|
B|---------5-------|-------5----|---------3-------|-------3----|
G|-----7-----7---7-|---7-----7--|-----5-----5---5-|---5-----5--|
D|---7---7-----7---|-7---7------|---5---5-----5---|-5---5------|
A|-5---------------|------------|-3---------------|------------|
E|-----------------|------------|-----------------|------------|

...FIESTA BASURAS¡¡¡      .......SAQUENSE LA PUTASUMARE¡¡¡¡
E|-----------------|------------|-----------|---------|
B|---------1-------|-------1----|--------0--|-3-------|
G|-----3-----3---3-|---3-----3--|-----2-----|-0-5-4-5-|
D|---3---3-----3---|-3---3------|---2---2---|---------|
A|-1---------------|------------|-0---------|---------|
E|-----------------|------------|-----------|---------|

ESA GENTE HARDCORE CARAJO¡¡¡   APOYANDO AL HARDCORE LA ESCENA MIERDA¡¡¡
                              AHY UNIDOS CARAJO....
E|---------------5---------5-----|---------------3---------3-----|
B|---------5-------5---------5---|---------3-------3---------3---|
G|-----7-----7-------7---7-----7-|-----5-----5-------5---5-----5-|
D|---7---7-----7-------7---------|---5---5-----5-------5---------|
A|-5-----------------------------|-3-----------------------------|
E|-------------------------------|-------------------------------|

..AVANZANDO ...TRAYENDO GRUPOS EXTRANJEROS BASURAS
                          APOYEN AL ROCK PERUANO CARAJO¡¡¡¡
E|---------------1---------1-----|----------|---------|
B|---------1-------1---------1---|--------0-|-3-------|
G|-----3-----3-------3---3-----3-|-----2----|-0-5-4-5-|
D|---3---3-----3-------3---------|---2---2--|---------|
A|-1-----------------------------|-0--------|---------|
E|-------------------------------|----------|---------|

            ..QUE ES ESO?            ..QUE ES ESO MIERDAS?
E|---------------5---------5-----|---------------3---------3-----|
B|---------5-------5---------5---|---------3-------3---------3---|
G|-----7-----7-------7---7-----7-|-----5-----5-------5---5-----5-|
D|---7---7-----7-------7---------|---5---5-----5-------5---------|
A|-5-----------------------------|-3-----------------------------|
E|-------------------------------|-------------------------------|
          BIEN, BIEN AHY, TIRALA LLENA PE ....CONCHATUMARE PA' TOMAR ALGO....
E|---------------1---------1-----|---|
B|---------1-------1---------1---|-0-|
G|-----3-----3-------3---3-----3-|-2-|
D|---3---3-----3-------3---------|-2-|
A|-1-----------------------------|-0-|
E|-------------------------------|---|

(CON GUITARRA DISTORCIONADA)

   D5   C5   A#5   A5
E|-X----X-----X----X-------
B|-X----X-----X----X-------
G|-7----5-----3----2-------
D|-7----5-----3----2-------
A|-5----3-----1----0-------
E|-X----X-----X----X-------

D5   C5   A#5     A5
        VAMOS AHY MUTANTES¡¡¡¡¡
D5   C5   A#5     A5

RIFF:
            ........ A ......................      .. B ..
E|-------------|-------------|-------------|-------------|---|  ..(EN EL CUARTO RIFF)    DICES ESTO¡¡¡¡¡
B|-------------|-------------|-------------|-------------|---|                  ..ESTA CANCION LA PRIMERA DEL SEGUNDO CD
G|-------------|-------------|-------------|-------------|---|                  ..YA VIENE BASURAS¡¡¡¡
D|------33-3/2-|------33-3/2-|------33-3/2-|------33-3/2-|-3-|  ..(AX2) LUEGO MUERE EN B
A|-(5)5--------|-(3)3--------|-1(1)--------|-0(0)--------|---|
E|-------------|-------------|-------------|-------------|---|


(CORO)

D5   C5              A#5               A5
FATAL EL DESTINO QUE ME LLEVO A COMETER

D5            C5       A#5             A5
ESE ACTO MORTAL DEL CUAL ME ARREPIENTO

D5                 C5       A#5          A5
EN EL MOMENTO PIENSAS EN NO HAY LIMITES

D5              C5             A#5             A5
PERO VEZ KE UN PEKEÑO ERROR PUEDE CAUSAR UNA TRAGIKA VERDAD

D5              C5             A#5             A5
POR UNA SODA EN MI INTERIOR QUE ME DICE

D5           C5        A#5            A5
CADA VEZ ME DESPEDI, SI ME DESPEDI...


RIFF(X2)


D5                  C5                A#5
EL DE ARRIBA QUE NOS PROHIBIO CRUZAR

      A5              D5               C5    A#5     A5
Y SI PUDIERA REGRESAR   PARA PODER GANAR

D5                  C5                A#5
EL DE ARRIBA QUE NOS PROHIBIO CRUZAR

      A5              D5               C5    A#5     A5
Y SI PUDIERA REGRESAR   PARA PODER TRIUNFAR


D5   C5              A#5               A5
FATAL EL DESTINO QUE ME LLEVO A COMETER

D5            C5       A#5             A5
ESE ACTO MORTAL DEL CUAL ME ARREPIENTO

D5                 C5       A#5          A5
EN EL MOMENTO PIENSAS EN NO HAY LIMITES

D5              C5             A#5             A5
PERO VEZ KE UN PEKEÑO ERROR PUEDE CAUSAR UNA TRAGIKA VERDAD


RIFF(x2)
FATAL VOLUMEN.......

(SOLO) ESTE SOLO LA VERDAD KE LA HE SAKADO + O -
       X ESO AUN NO LA KIERO PUBLIKAR, ADEMAS
       C NECESITA DE UN PEDAL PA KE SUENE BRAVO¡¡¡¡
       PrONTo LeS MaNdO La rAYAda-!!


D5 C5 A#5 A5   (x2)kreo???

D5   C5              A#5               A5
FATAL EL DESTINO QUE ME LLEVO A COMETER

D5            C5       A#5             A5
ESE ACTO MORTAL DEL CUAL ME ARREPIENTO

D5                 C5       A#5          A5
EN EL MOMENTO PIENSAS EN NO HAY LIMITES

D5              C5             A#5             A5
PERO VEZ KE UN PEKEÑO ERROR PUEDE CAUSAR UNA TRAGIKA VERDAD


RIFF(x4)

   D5      C5        A#5      A5
E|-XXXX----XXXX-----XXXX----XXXX-------
B|-XXXX----XXXX-----XXXX----XXXX-------
G|-7777----5555-----3333----2222-------
D|-7777----5555-----3333----2222-------
A|-5555----3333-----1111----0000-------
E|-XXXX----X333-----XXXX----XXXX-------

POR UNA SODA EN MI INTERIOR CALME MI SED

CADA VEZ ME DESPEDI, SI ME DESPEDI...

D5    C5    A#5    A5
POR UNA SODA
POR UNA SODA, EN MI INTERIOR
CADA VEZ ME DESPEDI...

COME MIERDAS¡¡¡
FUERA TODOS UY¡¡¡¡

A5 A#5 C5 D5  (hazlo lento pa ke suene mas bravo)

(AKI MUERE TODO  MEN¡¡¡¡)

ESA GENTE LINDA CON CAMARA DE GAS CARAJO
FUERZA¡¡
GRACIAS, GRACIAS DE TODO CORAZON CARAJO ESA GENTE¡¡¡
FUERZA, SALTEN POR FIN DE AÑO CARAJO¡¡
GRACIAS¡¡
GRACIAS COCHINADAS¡¡
ESAS FIERAS¡
GRACIAS MUTANTES AH¡
QUE BONITA GENTE...
UN SALUDO A JERAL AHY BROTHER
ESA GENTE APOYANDO SIEMPRE LA ESCENA CARAJO¡¡
A CHIQUI ... ESA GENTE, ESA GENTE VENCEDORA
QUIERE VENCER TODO CARAJO¡¡ LA DROGA...
HAGANSE SUS METAS, VENZAN EL VICIO BASURAS
VENCEDOR DEJEN¡¡
NO  DEJEN, NO DEJEN DE FUMAR¡¡¡


NOTA::::::::::::
EL TAB ES DEDIKADO KOMO 100PRE PARA CANDY LIZETH LLERENA TITO---
ERES MI UNIKO AMOR... PENSAR KE STOY ENAMORADO DE TI DSD AC + D 1 AÑO-!!
A MIS PATAS DE KUERDAS.. AMIGOS DEL INSTU TAMBIEN-!!

Y A TODA LA GENTE KE C SAKA LA MIERDA KOMO YO POGUEANDO KUANDO TOKA CONTRACORRIENTE¡¡¡¡¡
DISFRUTENLA¡¡¡¡ PERO CANTENLA Y APRENDANLA KON TODO Y EL INTRO DE LISURAS
PA' KE SUENE MAS BRAVO, HAGANLO X CONTRACORRIENTE¡¡¡¡  JEJJEJJEE¡¡¡¡

SI NECESITAS GUITARRISTA PA' TU GRUPO UN MAIL PESSS A VR KE SALE¡¡¡¡¡¡
kenny_fuck@

tOmA cONcHadEtuMadRE eL hAmpOn¡¡¡ EsA GeNte kOme mIeRda kaRajO¡¡¡
PrUebeN hArdCOre¡¡¡  fUeRZa mUtaNtEs¡¡¡ nO mE iMpOrtAs bASuRA¡¡ dice:

            *******CONTRACORRIENTE********
                    ****FATAL****

            
            
Suggest correction
Creating personal tab
Creating personal tab
You can edit any tab online and save it as your Personal.

You can edit, replace or remove any tab part or add personal notes – all changes will be seen only by you.

Personal tabs can be accessed anytime from any device, even offline.
Learn more »
Give kudos to tab author, rate the tab!
1 2 3 4 5
comments
print report bad tab
guest
Wanna post a correction for this tab? Suggest correction