Oops, an error
Loading. Please wait.

Vencedor tab

version 2
version 2

Whole song

19 views 3 this week
no commentswrite comment
1 2 3 4 5
3 more votes to show rating
add to favorites
×
Save as Personal and add changes to this tab that will be seen only by you. Learn more ›
×
You can save this tab as Personal to edit and correct it or add notes. All changes will be seen only by you. Learn more »
launch autoscroll
font size
0
reset
how to read this tab
guitar tuner
edit
Autoscroll
slow
fast
+/-
esc
set tempo
stop
AKA LES VA EL SOLO DE VENCEDOR UNA GRAN KANCION DE CONTRACORRIENTE
ESCRITA POR ALEX SIGNORI--- FUERZA GENTE DEJEN EL VICIO---
AGRADESKO A UNA PERSONA K ME AYUDO A DEJAR ESE VICIO K
TANTO NOS KONSUME---- T KIERO MI PRINCESA MAYTE!!!
RUIDO ANTISISTEMA HYO RESISTE DEJENSE DE POSERIAS X AMOR A LA MUSIKA
SI KIERES FIGURAR SOBRAS AKI---

|-----------------------------------------------------------|
|-----------------------------------------------------------|
|9-9-8-8-9-9-11-11-9-8-(X5)---------------------------------|
|--------------------------------2--2-4P2-4*-----2--2-4-2-4-|
|----------------------------2-4--4----------2-4--4---------|
|-----------------------------------------------------------|

|-------------------------------------------------------------|
|-------------------------------------------------------------|
|11b-11b-11b---9-9-8-9-11b11b--9-9-8-9-11b-----11p9*-9b--11b--|
|-----------------------------------------11^-----------------|
|-------------------------------------------------------------|
|-------------------------------------------------------------|

|---------------------------------------------|
|---------------------------------------------|
|11b-11b----9b-11b-8h9b-11b-9b--11p9*--11b-9b-|
|---------------------------------------------|
|---------------------------------------------|
|---------------------------------------------|

|-------------------------------------------------------------|
|-------------------------------------------------------------|
|9*-11b--9*-8*-11*-12b----------------------------------------|
|----------------------12b-12p10*-10-12-12/0--2*-4*-5*-7*-9*--|
|-------------------------------------------------------------|
|-------------------------------------------------------------|

CONTRACORRIENTE 95-01 KUALKIER PUTEO DUDA KEJA SUGERENCIA AMENAZA
escribir a rogapi77@

            
            
Suggest correction
Creating personal tab
Creating personal tab
You can edit any tab online and save it as your Personal.

You can edit, replace or remove any tab part or add personal notes – all changes will be seen only by you.

Personal tabs can be accessed anytime from any device, even offline.
Learn more »
Give kudos to tab author, rate the tab!
1 2 3 4 5
comments
print report bad tab
guest
Wanna post a correction for this tab? Suggest correction