Oops, an error
Loading. Please wait.

Ileso tab

version 2
version 2

Whole song

34 views 1 this week
no commentswrite comment
1 2 3 4 5
3 more votes to show rating
add to favorites
×
Save as Personal and add changes to this tab that will be seen only by you. Learn more ›
×
You can save this tab as Personal to edit and correct it or add notes. All changes will be seen only by you. Learn more »
launch autoscroll
font size
0
reset
how to read this tab
guitar tuner
edit
Autoscroll
slow
fast
+/-
esc
set tempo
stop
ke onda raza el otro mugrero de tab esta bien chafo 
ni se oye igual raza...nose vayan con la fintas los tab
ke escribo yo son 100%correctos sino me mandan un mail
para corregirlos raza .. ypos asi va la rola:

Fig.1
e---------------------------------8-8-8-8---
b---------------------10-10-10-10-----------
g-------------9-9-9-9-----------------------
d-10-10-10-10-------------------------------
a-------------------------------------------
E-------------------------------------------

Fig.2
e-------------------------------
b-------------------------------
g-------------------------------
d-------------------------------
a-------------------------------
E-11-11-11-11-9-9-9-9-8---------

Fig.3
e-7-7-7-7-7-7-7-7-6-6-6-6-6-6-6-6--
b-7-7-7-7-7-7-7-7-7-7-7-7-7-7-7-7--
g-7-7-7-7-7-7-7-7-7-7-7-7-7-7-7-7-- se repite
d-5-5-5-5-5-5-5-5-5-5-5-5-5-5-5-5-- 2 veces 
a-5-5-5-5-5-5-5-5-5-5-5-5-5-5-5-5-- (se tokan para
E-5-5-5-5-5-5-5-5-5-5-5-5-5-5-5-5--  arriba)

Fig.4
e---2---2---2---2---2---2---2-2-4-6-2-
b-2---2---2---2---2---2---2-----------
g-------------------------------------
d-------------------------------------
a-------------------------------------
E-------------------------------------

intro: Fig. 1 ..(2 veces)

(AGAN  LA FIGURA. 1 Y LA FIGURA 2)escuchenla para ke agarren los tiempos
Arranca vamos, como veamos damos,cuando llegamos extendiendo manos
sonriendo estamos, locos kedamos, somos trece de familia y sonamos
cuida que nada dependa de exceso,frene sentidos y este  mas travieso
ser transparente te transporta ileso no se fracasa si existe un comienzo
A que quieres hacerdel inicio a la meta existen problemas comunes
preguntas y repuestas revueltas aaa cuection de ver la correcta.

CORO:(AGAN LA FIGURA 1 Y LA FIGURA 2)
no se fracaza si existe un comienzo
no se fracaza si existe un comienzo
no se fracaza si existe un comienzo
ser transparente te transporta ileso (2)

(AGAN LA FIGURA 1 Y LA FIGURA 2)
Entonces acomodaras empiezan las andadascaidas falladas entre que
metas alcanzadas y alocalizadas esfacolizarlas
Abarca tramosdonde seamos unamos
cuando movemos tambien avanzamos
viviendo amamos y diferenciamos
iguales sobre el sonido rondamos
cuida que nada te quite el motivo
da gracias al color de estart vivo
aunque tropieze me levanto y sigo
al numero m lo llevo conmigo.

(CORO))FIGURA 1 Y 2)

Eit ke vas hacer estas conforme con lo que tienes
aaa yo no dependo de nada dependo de aire mientras aiga aire
aqui estare luchando representando a mi gente la que a tomado
y la que toma en la mano el machete eso asi de facil
y no estoy conforme y exigo mis derechos sino me gusta lo que veo
lo opino y lo defiendo
aqui estoy mira no doy ningun paso atras mira
no pienses detener ahora es mi turno kieras o no kieras
artilleria pesada anda por el rumbo.

(AGAN LA FIGURA 3)(4 VECES)
que es lo esperas que un dia suceda  (se repite 4 veces)
por ke te entregas abusas no empleas

(CORO)(4 veces)(FIGURA 1 Y 2)

al ultimo dice algo de tu tia y sigue la Fig.4
------------------------------------------------
y esto es todo raza el otro tab esta bien chafo no se
los recomiendo vean este ...ay raza ke no mas pones
tab por poner pero yo no

            
            
Suggest correction
Creating personal tab
Creating personal tab
You can edit any tab online and save it as your Personal.

You can edit, replace or remove any tab part or add personal notes – all changes will be seen only by you.

Personal tabs can be accessed anytime from any device, even offline.
Learn more »
Give kudos to tab author, rate the tab!
1 2 3 4 5
comments
print report bad tab
guest
Wanna post a correction for this tab? Suggest correction