Oops, an error
Loading. Please wait.

History bass

10 views 1 this week
no commentswrite comment
1 2 3 4 5
3 more votes to show rating
add to favorites
×
Save as Personal and add changes to this tab that will be seen only by you. Learn more ›
×
You can save this tab as Personal to edit and correct it or add notes. All changes will be seen only by you. Learn more »
launch autoscroll
font size
0
reset
guitar tuner
edit
Autoscroll
slow
fast
+/-
esc
set tempo
stop
Author
Difficulty
About this tab version
This is a fun bass line to play. And it is not too difficult. Some notes in the chorus were hard to pick out, hence the "ghost notes". Was this info helpful? Yes No
[Intro / Verse]
                   (x4)               (x4)    (Sometimes the second line is played this way:)
G|----0--------------|-0--4-------------|         |-0--4-------------|
D|-2-----0-2-2-2-----|-------4-2-2-2-2--|         |-------4-2-2-2----|
A|---------------0---|------------------|         |---------------0--|
E|-------------------|------------------|         |------------------|

[Chorus 1] 
               (x4)                (x4)
G|-----------------|-------------------|
D|-----------------|-------------------|
A|--3------3-3-----|-------------------|
E|----(3)------(3)-|--5--(0)---5-5-(0)-|


[Chorus 2] (some variations here, it's also longer than the first chorus)
               (x4)                (x4)              (x4)              (x4)
G|----------------|-------------------||----------------|-----------------|
D|-------------5--|-------------------||-----5-------5--|-----------------|
A|--3------3-3----|------7------------||--3------3-3----|------7-------7--|
E|----(3)---------|--5-------5-5-(0)--||----------------|--5-------5-5----|


[Bridge]  
                                                                           This bar (x4)
G|----------------|----------------|---------------|-----------2---||-------------------||
D|----------------|----------------|---------------|---------------||*------4-----5-4--*||
A|-3---3---3-3-3--|-3---3---3-3-3--|-3---3---3-3-3-|-3---3---3---3-||*--2-------2------*||
E|----------------|----------------|---------------|---------------||-------------------||

 There is also some variation in the bridge:
                                                                           This bar (x4)
G|----------------|----------------|---------------|---------------||-------------------||
D|-------------5--|-------------5--|-------------5-|-----------5---||*------4-----5-4--*||
A|-3---3---3-3----|-3---3---3-3----|-3---3---3-3---|-3---3---3---0-||*--2-------2------*||
E|----------------|----------------|---------------|---------------||-------------------||

Eventually the bass continues to repeat the last bar, rather than going back to the C.

[Outro]                 end on E
G||------0-------------||-----||
D||--2-----0-2-2-2-----||--2--||
A||----------------0---||-----||
E||--------------------||-----||


( ) Ghost Note

            
            
Suggest correction
Creating personal tab
Creating personal tab
You can edit any tab online and save it as your Personal.

You can edit, replace or remove any tab part or add personal notes – all changes will be seen only by you.

Personal tabs can be accessed anytime from any device, even offline.
Learn more »
Give kudos to tab author, rate the tab!
1 2 3 4 5
comments
print report bad tab
guest
You may want to rate the tab now too:
select rating
Wanna post a correction for this tab? Suggest correction