Oops, an error
Loading. Please wait.

Aimless Arrow tab

version 1
version 1

Whole song

Interactive

8,065 views 18 this week
2 commentsread comments
1 2 3 4 5
x 9
add to favorites
×
Save as Personal and add changes to this tab that will be seen only by you. Learn more ›
×
You can save this tab as Personal to edit and correct it or add notes. All changes will be seen only by you. Learn more »
launch autoscroll
font size
0
reset
how to read this tab
guitar tuner
edit
Autoscroll
slow
fast
+/-
esc
set tempo
stop
----------------------------------------------------------------------------------------
                           Aimless Arrow - Converge
----------------------------------------------------------------------------------------
Tabbed by: millarso (Jake Miller)
E-mail: millarso2.0@gmail.com

Tuning: Drop C (Dropped A string ½ Step, Dropped D string 1 step)

UPDATED 08/27/13: djerzinski recommended a tuning variant which allows you to
play a fuller dissonant chord, and I think I prefer it.

SECTION 1 (x2)
C |-----------------------------------------------------|
Ab|----------------------------------------7--p0--------|
F |----7--0--------7---5p0----7--0----0h7h8-----7p0-5p0-|
C |----------8--8-----8-------------8-------------------|
G |-----------------------------------------------------|
C |-7----------------------7----------------------------|
                                        
                                       1st Ending   2nd Ending
C |------------------------------------|-7--7--7-7-|-7--7--7-7--7--7--7-7-|
Ab|------------------------------------|-0--0--0-0-|-0--0--0-0--0--0--0-0-|
F |----7--0--------7---5p0----3----5p0-|-x--x--x-x-|-x--x--x-x--x--x--x-x-|
C |----------8--8-----8----------------|-7--7--7-7-|-7--7--7-7--7--7--7-7-|
G |------------------------------------|-0--0--0-0-|-0--0--0-0--0--0--0-0-|
C |-7----------------------3-----3-----|(7)--------|----------------------|

NOTE: Feel free to add that extra 7 to the dissonant chords if you want a little more
grit.
NOTE 2: It actually feels easier to me to play the low C string notes with my thumb.
It frees up more room and fingers, but I know some frown on that. If you watch some live
videos, it looks like Ballou might be using his thumb.

TRANISTION
C |--------------|
Ab|--------------|
F |-0------------|
C |-0-(let-ring)-|
G |-0------------|
C |-0------------|

SECTION 2
NOTE: Every note in this section is tapped. Try to mute any string that is not being
tapped as much as possible. Above each bar I will place an L or an R for left hand tap or
right hand tap. I suggest using your pointer and middle to tap the right hand.

     R    L    R  L  R L R    L    R  L  R L    R   L  R   L    R   L   R   L
C |---------------------------------------------------------------------------|
Ab|-16--------16----16--16--------16----16-----16-----16-------16-------------|
F |-15---12---15-12-151215---12---15-12-15-8---15---8-15---8---15---8--17\--8-|
C |---------------------------------------------------------------------------|x3
G |---------------------------------------------------------------------------|
C |---------------------------------------------------------------------------|

     R    L    R  L  R L R    L    R  L  R L    R   L  R   L    R   L   R
C |-------------------------------------------------------------------------|
Ab|-16--------16----16--16--------16----16-----16-----16-------16-----------|
F |-15---12---15-12-151215---12---15-12-15-8---15---8-15---8---15---8--17\--|
C |-------------------------------------------------------------------------|
G |-------------------------------------------------------------------------|
C |-------------------------------------------------------------------------|

SECTION 3 (Keep Tapping)
    L    R  L  R   L    R   L  R    L    R   L  R     L    R    L  R
C |---------------------------------------------------------------19-|
Ab|-----------21--------------21---------------16--------------------|
F |-8---20--8-20---8---20---8-20--8\7---15---7-15--7/10---17---10-17-|
C |-----20-------------20---------------15----------------17---------|
G |------------------------------------------------------------------|
C |------------------------------------------------------------------|

    L    R  L  R   L    R   L  R    L    R   L  R     L    R    L  R
C |------------------------------------------------------------------|
Ab|-----21----21-------21-----21--------16-----16---------17------17-|
F |-8---20--8-20---8---20---8-20--8\7---15---7-15--7\10---17---10-17-|
C |------------------------------------------------------------------|
G |------------------------------------------------------------------|
C |------------------------------------------------------------------|

    L    R   L  R   L    R   L  R    L    R   L  R     L    R    L  R
C |--------------------------------------------------------19------19-|
Ab|-----21-----21-------21-----21--------16-----16--------------------|
F |-8---20---8-20---8---20---8-20--8\7---15---7-15--7/10---17---10-17-|
C |-------------------------------------------------------------------|
G |-------------------------------------------------------------------|
C |-------------------------------------------------------------------|

    L    R   L  R   L    R   L  R    L    R   L  R L
C |------------------------------------------------------|
Ab|-----21-----21-------21-----21--------16-----16-------|
F |-8---20---8-20---8---20---8-20--8\7---15---7-15-7/5~--|
C |------------------------------------------------------|
G |------------------------------------------------------|
C |------------------------------------------------------|

REPEAT SECTION 2

REPEAT SECTION 3

REPEAT SECTION 1

SECTION 4 (Fast tremolo picking for both chords)
C |-7----8----|
Ab|-0----0----|
F |-x----x----|
C |-7----8----|x3
G |-0----0----|
C |(7)--(8)---|

C |-7----7---7---7-7-|
Ab|-0----0---0---0-0-|
F |-x----x---x---x-x-|
C |-7----7---7---7-7-|
G |-0----0---0---0-0-|
C |-TP---------------|

SECTION 5
C |-7---7---7-7---7---7---7-7---7---7---7-7---7---7---8-8-0-|
Ab|-0---0---0-0---0---0---0-0---0---0---0-0---0---0---0-0-0-|
F |-x---x---x-x---x---x---x-x---x---x---x-x---x---x---x-x-0-|
C |-7---7---7-7---7---7---7-7---7---7---7-7---7---7---8-8-0-|x2
G |-0---0---0-0---0---0---0-0---0---0---0-0---0---0---0-0-0-|
C |---------------------------------------------------------|

SECTION 6
C |------------------------------|
Ab|------------------------------|
F |------------------------------|
C |-7---7---7-5-7-8---8---7-10-8-|x3
G |-7---7---7-5-7-8---8---7-10-8-|
C |-7---7---7-5-7-8---8---7-10-8-|

C |-------------7---7---7-7-|
Ab|-------------0---0---0-0-|
F |----3----5p0-x---x---x-x-|
C |-------------7---7---7-7-|
G |-------------0---0---0-0-|
C |-3-----3-----------------|

This tab was ridiculously hard for me to tab out because there is some weird technique
going on in this song. I hope it sounds good to you guys.
Please rate & comment (go easy on me, haha)
Thanks,
millarso

************************************

| /   slide up
| \   slide down
| h   hammer-on
| p   pull-off
| ~   vibrato
| +   harmonic
| x   Mute note
| b   Bend
| pb  Pre-bend
| br  Bend release
| pbr Pre-bend release
| brb Bend release bend

************************************

            
            
Suggest correction
Creating personal tab
Creating personal tab
You can edit any tab online and save it as your Personal.

You can edit, replace or remove any tab part or add personal notes – all changes will be seen only by you.

Personal tabs can be accessed anytime from any device, even offline.
Learn more »
comments
print report bad tab
2 comments total.
0 reply
vppark2 1,820 Apr 18, 2015 08:46 PM

Perfect. Will practice this.

0 reply
pemg 10 Dec 31, 2015 10:38 AM

spot on!!! really good!

guest
You may want to rate the tab now too:
select rating
Wanna post a correction for this tab? Suggest correction