Oops, an error
Loading. Please wait.

All We Love We Leave Behind Tab

version 2
version 2

Whole song

Interactive

11,982 views 51 this week
2 commentsread comments
1 2 3 4 5
excellent!
x 10
add to favorites
launch autoscroll
font size
0
reset
how to read this tab
guitar tuner
Autoscroll
slow
fast
+/-
esc
set tempo
stop
Help us to improve Ultimate-Guitar.com Take our survey!
×
Contributor
Difficulty
Tuning
millarso 2,871
intermediate
C G C F A D
-----------------------------------------------------------------
All We Love We Leave Behind - Converge
-----------------------------------------------------------------
Tabbed by: millarso (Jake Miller)
Email: millarso2.0@gmail.com
Tuning: Drop C

Riff 1
D|---------------------------------|
A|---------------------------------|
F|-------7p5-----------------------|
c|-0h3p0-----0h7h8-0h3p0-8p7-0h5h7-|x7
G|---------------------------------|
C|---------------------------------|

D|----------------------------------|
A|----------------------------------|
F|-------7p5---------------9p0-9h10-|
c|-0h3p0-----0h7h8-8p7p5p0----------|
G|----------------------------------|
C|----------------------------------|

D|---------------------------------|
A|---------------------------------|
F|-------7p5-----------------------|
c|-0h3p0-----0h7h8-0h3p0-8p7-0h5h7-|x5
G|---------------------------------|
C|---------------------------------|

D|--------------------------------------------------------------|
A|-------------------------------------------------------17-17\-|
F|-------7p5---------------9p0-9h10----/15-12~-----18----18-18\-|
c|-0h3p0-----0h7h8-8p7p5p0----------12---------/14----14--------|
G|--------------------------------------------------------------|
C|--------------------------------------------------------------|

Repeat Riff 1

Riff 2 (fast picking/tremolo)
D|--------------------------------------|
A|-(18)-----(17)-----(15)-----(17)------|
F|--19-(x32)-17-(x32)-15-(x32)-18-(x32)-|
c|--15-------14-------12-------14-------|x2
G|--------------------------------------|
C|--------------------------------------|

Note: For this riff and the following, I couldn't tell if the higher octave was being
 played, but it sounds pretty good either way except without is a little easier to do

Riff 3
D|----------------------------------------|
A|-(18-18)--(18-18)--(18-18)----(19-19)---|
F|--19-19----19-19----19-19------20-20----|
c|--15-15----15-15----15-15------16-16----|x3
G|--------00-------00-------0000-------00-|
C|--------00-------00-------0000-------00-|
          ..       ..       ....       ..

D|-------------------------------0---------------------------------------|
A|-6-6---6-6---6-6----6/------\--0---------------------------------------|
F|-7-7---7-7---7-7----7/------\--0---------------------------------------|
c|-7-7---7-7---7-7----7/whammy\--0-(let-ring-for-a-while)-\\\\\\\\\\\\\\-|
G|-5-5-0-5-5-0-5-5-0--5/------\--0------------------------\\pick-slide\\-|
C|-----0-----0-----0-------------0------------------------\\\\\\\\\\\\\\-|
       .     .     .
When they play live, I think Ballou replaces the whammied chord (which I'm not really 
sure about) with this:
D|-------|
A|-------|
F|-------|
c|-------|
G|-/12~\-|
C|-------|

Repeat Riff 1

Repeat Riff 2

Riff 4 (nearly identical to Riff 3)
D|----------------------------------------|
A|-(18-18)--(18-18)--(18-18)----(19-19)---|
F|--19-19----19-19----19-19------20-20----|
c|--15-15----15-15----15-15------16-16----|x3
G|--------00-------00-------0000-------00-|
C|--------00-------00-------0000-------00-|
          ..       ..       ....       ..

D|-------------------------|
A|-(18-18)--(18-18)---(19)-|
F|--19-19----19-19-----20--|
c|--15-15----15-15-----16--|
G|--------00-------00------|
C|--------00-------00------|
          ..       ..  TP

Riff 5
D|-------------------------0-0--0-0--0-0--0-0--3-3--3-3--3-3--3-3--|
A|-6-6---6-6---6-6---6-6---1-1--1-1--1-1--1-1--3-3--3-3--3-3--3-3--|
F|-7-7---7-7---7-7---7-7---2-2--2-2--2-2--2-2--3-3--3-3--3-3--3-3--|
c|-7-7---7-7---7-7---7-7---2-2--2-2--2-2--2-2--5-5--5-5--5-5--5-5--|
G|-5-5---5-5---5-5---5-5---0-0--0-0--0-0--0-0--5-5--5-5--5-5--5-5--|
C|-----6-----6-----6-----6-----------------------------------------|

D|-1-1-1-1-1-1--4-4-4-4-4-4-|
A|-2-2-2-2-2-2--5-5-5-5-5-5-|
F|-3-3-3-3-3-3--6-6-6-6-6-6-|
c|-3-3-3-3-3-3--6-6-6-6-6-6-|
G|-1-1-1-1-1-1--4-4-4-4-4-4-|
C|--------------------------|

Riff 6
D|-------------------------------|
A|-6-6----6-6----6-6------7-7----|
F|-7-7----7-7----7-7------8-8----|
c|-7-7----7-7----7-7------8-8----|x3
G|-5-5-00-5-5-00-5-5-0000-6-6-00-|
C|-----00-----00-----0000-----00-|
       ..     ..     ....     ..

D|-------------------------------|
A|-6-6---6-6---6-6----6/------\--|
F|-7-7---7-7---7-7----7/------\--|
c|-7-7---7-7---7-7----7/whammy\--|
G|-5-5-0-5-5-0-5-5-0--5/------\--|
C|-----0-----0-----0-------------|
       .     .     .

And that's the song. I'm not too sure about the whammy parts and Riff 5 was rather tough 
for me, but otherwise, I think it sound alright.
Please rate & comment.
Thanks,
millarso
comments
print report bad tab
2 comments total.
0 reply
WCPhils 731 wrote on January 30 2013, 10:35 am

Sounds great!

0 reply
mastodude13 298 wrote on January 31 2013, 01:16 pm

Much better than my attempt haha

I want to post or [tab]
guest
You may want to rate the tab now too:
select rating
Please do not post tabs as comments. Select "correction" instead!