Oops, an error
Loading. Please wait.

Becoming A Stranger Tab

1,045 views 3 this week
no commentswrite comment
1 2 3 4 5
please rate
add to favorites
launch autoscroll
font size
0
reset
how to read this tab
guitar tuner
Autoscroll
slow
fast
+/-
esc
set tempo
stop
Help us to improve Ultimate-Guitar.com Take our survey!
×
Converge
Becoming a Stranger
Halo in a Haystack/Caring and Killing
Tabbed By: Jack Gremmer (bootboy7us@yahoo.com)

Standard Tuning (E-A-D-G-B-E)

Riff A :00-:51
|-------------------------------------|
|-------------------------------------|
|-------------------------------------|
|-------------------------------------|
|--444/55--444/55---444/55--444/55--2-|
|--222/33--222/33---222/35--222/33--0-|


Riff B1 : :51-1:21
|-------------------------|
|-------------------------|
|-------------------------|
|-------------------------|
|--9-5-9-9-----9-5-9-9----|
|-7-----5-3-5-7-----5-3-5-|

Riff B2: 1:21-1:59
|--------------------------------------------------------|
|--------------------------------------------------------|
|------------------12-12-12-12-14-14-14-14-11-11-11-9-9-9|
|--------------------------------------------------------|
|-9999-22-5-2222---10-10-10-10-12-12-12-12--9--9--9-7-7-7|
|-7777-00-3-0000-----------------------------------------|

Riff C: 1:59-2:01
|------------|
|------------|
|------------|
|------------|
|-9999999999-|
|-7777777777-|

Riff D1: 2:01-2:05
|------------------|
|------------------|
|------------------|
|------------------|
|-999999-555-777-4-|
|-777777-333-555-2-|

Riff D2: 2:05-2:10
|----------------------|
|----------------------|
|----------------------|
|----------------------|
|-999999-555-777-44-44-|
|-777777-333-555-22-22-|

Repeat Riff D1 and D2

Riff E1: 2:20-2:25
|-----------------------------------|
|-----------------------------------|
|-----------------------------------|
|-----------------------------------|
|-555555-777777-999999-121212121212-|
|-333333-555555-777777-101010101010-|

Riff E2: 2:25-2:30
|---------------------|
|---------------------|
|---------------------|
|---------------------|
|-555555-777777-44-44-|
|-333333-555555-22-22-|

Riff F: 2:30-2:40
|---------|
|---------|
|---------|
|---------|
|-444-7-5-|
|-222-5-3-|

Riff G: 2:40-2:51
|------------------------------|
|------------------------------|
|------------------------------|
|------------------------------|
|-99-121212121212-99-9-9-7-5-5-|
|-77-101010101010-77-7-------3-|

Riff A: 2:51-3:24

The song continues to 4:09, but there is no more structured guitar. Thanks.
Suggest correction
What's this?
You can suggest a correction to this tab. Community and Mods will review your correction and vote to approve or reject it.
comments
We did not receive enough feedback on this tab! Please rate:
print report bad tab
1 2 3 4 5
guest
You may want to rate the tab now too:
select rating
Please do not post tabs as comments. Select "correction" instead!