Oops, an error
Loading. Please wait.

Concubine Bass Tab

version 1
version 1

Whole song

Interactive

3,473 views 15 this week
1 commentread comment
1 2 3 4 5
excellent!
x 1
add to favorites
launch autoscroll
font size
0
reset
guitar tuner
Tab Pro tools
  • play this tab
  • loop segment
  • change instrument
  • show fretboard
  • metronome
Autoscroll
slow
fast
+/-
esc
set tempo
stop
I didn't know why none of you guys had a bass tab of converge
this band kicks major ass

any problems just e-mail me chemical_sunday@yahoo.com

Riff 1 (0:06)
F |-----------------------------------|
C |-----------------------------------|
G |--------9---9---9---9---9---9---9--|
C |--00000---0---0---0---0---0---0----|

Fill 1 (0:13)
F |-------------------------|
C |-------------------------|
G |--------3-5-3-0----------|
C |--3-3-5---------5-3-3-0--|

Riff 2 (0:15)
F |------------------|
C |------------------|
G |---------------5--|
C |--000000000000----|

Fill 2 (0:24)
F |--------------5-7--|
C |--------5-7-8------|
G |--5-7-8------------|
C |-------------------|

Riff 2 (0:26)
F |------------------|
C |------------------|
G |---------------5--|
C |--000000000000----|

Fill 2 (0:44)
F |--------------5-7--|
C |--------5-7-8------|
G |--5-7-8------------|
C |-------------------|

Fill 1 (0:35)
F |-------------------------|
C |-------------------------|
G |--------3-5-3-0----------|
C |--3-3-5---------5-3-3-0--|

Riff 4 (0:36)
F |-------------------------|
C |-------------------------|
G |------5-xxx-5-xxx-5-xxx--|
C |--0h3--------------------|

Fill 1 (0:45)
F |-------------------------|
C |-------------------------|
G |--------3-5-3-0----------|
C |--3-3-5---------5-3-3-0--|

Riff 4 (0:47)
F |-------------------------|
C |-------------------------|
G |------5-xxx-5-xxx-5-xxx--|
C |--0h3--------------------|

Fill 1 (0:55)
F |-------------------------|
C |-------------------------|
G |--------3-5-3-0----------|
C |--3-3-5---------5-3-3-0--|

Riff 5 (0:57)
F |-------------------|
C |-------------------|
G |-------------------|
C |--0h1-0h3-0h4-0h3--|

Riff 2 (1:02)
F |------------------|
C |------------------|
G |---------------5--|
C |--000000000000----|

Fill 2 (1:06)
F |--------------5-7--|
C |--------5-7-8------|
G |--5-7-8------------|
C |-------------------|

Fill 1 (1:08)
F |-------------------------|
C |-------------------------|
G |--------3-5-3-0----------|
C |--3-3-5---------5-3-3-0--|

Riff 6 (1:10)
F |-------------------|
C |-------------------|
G |-------------------|
C |--3----3--3-----3--|

Riff 5 (1:13)
F |-------------------|
C |-------------------|
G |-------------------|
C |--0h1-0h3-0h4-0h3--|
comments
We did not receive enough feedback on this tab! Please rate:
print report bad tab
1 2 3 4 5
1 comment total.
0 reply
Dwardom wrote on December 5 2006, 08:43 pm

Yes... someone tabbed it!

I want to post or [tab]
guest
You may want to rate the tab now too:
select rating
Please do not post tabs as comments. Select "correction" instead!