Oops, an error
Loading. Please wait.

Concubine Tab

version 2
version 2

Whole song

Interactive

4,048 views 12 this week
1 commentread comment
1 2 3 4 5
2 more votes to show rating
add to favorites
launch autoscroll
font size
0
reset
how to read this tab
guitar tuner
Autoscroll
slow
fast
+/-
esc
set tempo
stop
Help us to improve Ultimate-Guitar.com Take our survey!
×
Author
Tuning
C G C F A D
---------------------------------------- ---------------------------------------
                        Concubine-Converge
-------------------------------------------------------------------------------
Tabbed by:madma7x
Email:madmax666@gmx at

Tuning:drop c  (in some songs kurt uses another tunig but it doesn´t matter
               In this one )

Intro


e|-----------------------------------------------------------------------------|
B|-----------------------------------------------------------------------------|
G|--12--12--12--12------12--12--12------12------12------1212~------------------|
D|11--11--11--11--11--11--11--11--11--11--11--11--11--11— 11~------------------|
A|------------------10--------------10------10------10-------------------------|
E|-----------------------------------------------------------------------------|
  x x x x x x x x x x x x x x x x x x x x x x x x x x x x

e|-----------------------------------------------------------------------------|
B|-----------------------------------------------------------------------------|
G|-----------------------------------------------------------------------------|
D|00000------------------------------------------------------------- ----------|
A|00000---10-10-10-10-10-10-10----00000---10-10-10-10-10-00000---0~------------|
E|00000-----0--0--0--0--0--0------00000-----0--0--0--0---00000---0~------------|
  Xxxxx     x  x  x  x  x   x     xxxxx     x  x  x  x   xxxxx


e|-----------------------------------------------------------------------------|
B|-----------------------------------------------------------------------------|
G|-----------------------------------------------------------------------------|
D|00000----------------------------------------------6-5-3---------------------|
A|00000----10-10-10-10-10-10-10--------3-6-0---------6 5 3---------------------|
E|00000-----0--0--0--0--0--0------0-3-6--------3-5---6-5-3---------------------|
  Xxxxx     x  x  x  x  x   x

Vers
e|------------------------------------------------------------------------------|
B|------------------------------------------------------------------0-1-2-3-----|
G|77777777777777778--77777777777777778--777777777777777778 -0-1-2-3-------------|
D|---------------------------------------------------------------------------2--|times
A|55555555555555556--55555555555555556--555555555555555556----------------------|
E|---------------------------------------------------- -------------------------|

bridge
e|------------------------------------------------------------------------------|
B|------------------------------------------------------------------------------|
G|------------------------------------------------------------------------------|
D|------------------------------------------------------------------------------|
A|------3-6-0-------------------------------------------------------------------|
E|0-3-6-------3-5---------------------------------------------------------------|

break
e|-----------------------------------------------------------------------------|
B|-----------------------------------------------------------------------------|
G|-----5---5---5---------------------------------------------------------------|
D|1-3--5---5---5-------5s are natural harmonics------3 times-------------------|
A|1-3---555-555-555----these 5s are also muted---------------------------------|
E|1-3--------------------------------------------------------------------------|
       ++++++++++++


e|-------------------------------------------------------------------------------|
B|-------------------------------------------------------------------------------|
G|-------------------------------------------------------------------------------|
D|------------------6--5---3-----------------------------------------------------|
A|------3-6-0-------6—-5---3-----------------------------------------------------|
E|0-3-6-------3-5---6--5---3-----------------------------------------------------|


e|-----------------------------------------------------------------------------|
B|-----------------------------------------------------------------------------|
G|-----5---5---5---------------------------------------------------------------|
D|1-3--5---5---5-------5s are natural harmonics------3 times-------------------|
A|1-3---555-555-555----these 5s are also muted---------------------------------|
E|1-3--------------------------------------------------------------------------|
       ++++++++++++


e|------------------------------------------------------------------------------|
B|------------------------------------------------------------------------------|
G|------------------------------------------------------------------------------|
D|------------------6--5---3----------------------------------------------------|
A|------3-6-0-------6—-5---3----------------------------------------------------|
E|0-3-6-------3-5---6--5---3----------------------------------------------------|


e|-----------------------------------------------------------------------------|
B|-----------------------------------------------------------------------------|
G|-----------------------------------------------------------------------------|
D|-----------------------------------------------------------------------------|
A|0-1--1-3--3-4--4—-3-----------2 times----------------------------------------|
E|0-1--1-3--3-4--4--3----------------------------------------------------------|


e|------------------------------------------------------------------------------|
B|------------------------------------------------------------------0-1-2-3-----|
G|77777777777777778--77777777777777778--777777777777777778 -0-1-2-3-------------|
D|------------------------------------------------------------------------------|
A|55555555555555556--55555555555555556--555555555555555556----------------------|
E|---------------------------------------------------- -------------------------|


e|-------------------------------------------------------------------------------|
B|-------------------------------------------------------------------------------|
G|-------------------------------------------------------------------------------|
D|------------------6--5---------------------------------------------------------|
A|------0-3-6-------6--5---------------------------------------------------------|
E|0-3-6-------3-5---6--5---------------------------------------------------------|

e|------------------------------------------------------------------------------|
B|------------------------------------------------------------------------------|
G|------------------------------------------------------------------------------|
D|0--0--0--0~-------------------------------------------------------------------|
A|0--0--0--0~-------------------------------------------------------------------|
E|0--0--0--0~-------------------------------------------------------------------|

e|-----------------------------------------------------------------------------|
B|-----------------------------------------------------------------------------|
G|-----------------------------------------------------------------------------|
D|-----------------------------------------------------------------------------|
A|0-1--1-3--3-4--4—-3----------------------------------------------------------|
E|0-1--1-3--3-4--4--3----------------------------------------------------------|


| /  slide up
| \  slide down
| h  hammer-on
| p  pull-off
| ~  vibrato
| +  harmonic
| x  Mute note
===============================================================================
Suggest correction
Give kudos to tab author, rate the tab!
1 2 3 4 5
comments
print report bad tab
1 comment total.
0 reply
djerzinski 189 Oct 11, 2009 03:08 AM

For the intro, the notes are right but he doesn't play it with his plectrum, he uses a tapping technique.

guest
You may want to rate the tab now too:
select rating
Wanna post a correction for this tab? Suggest correction