Oops, an error
Loading. Please wait.

Conduit Tab

467 views 1 this week
3 commentsread comments
1 2 3 4 5
please rate
add to favorites
launch autoscroll
font size
0
reset
how to read this tab
guitar tuner
Autoscroll
slow
fast
+/-
esc
set tempo
stop
Help us to improve Ultimate-Guitar.com Take our survey!
×
Author
Difficulty
Tuning
intermediate
D G C F A D
-----------------------------------------------------------------
Conduit - Converge
-----------------------------------------------------------------
Tabbed by: millarso (Jake Miller)
Email: millarso2.0@gmail.com
Tuning: Standard D

Section 1
d|------------------------------------------------|
A|------------------------------------------------|
F|-3-------------------------3--------------------|
C|-3-3--7--6------5------5---3-3--7--6---------4--|
G|-1-3--7--6------4------4---1-3--7--6---8-5-7-4--|
D|-1-1--5--4--1-3-3--1-4-3---1-1--5--4-1-6-3-5-2--|
              . .    . .               . . . .

d|------------------------------------------------|
A|------------------------------------------------|
F|-3---------------------------------7-8----------|
C|-3-3--7--6------5------5---8-5-7-4-7-8-8-5-7-4--|
G|-1-3--7--6------4------4---8-5-7-4-5-6-8-5-7-4--|
D|-1-1--5--4--1-3-3--1-3-3---6-3-5-2-5-6-6-3-5-2--|
              . .    . .

Repeat Section 1

Section 2
d|-----------------------------------------------------------------|
A|-----------------------------------------------------------------|
F|-----6h7p6p0-5h6p5p0-4h5p4p0-3h4p3p0---------4-5---------7-8-----|
C|-----------------------------------------3---4-5--5--6---7-8--8--|
G|-TP----------------------------------TP--3---2-3--5--6---5-6--8--|
D|-0-----------------------------------0---1---2-3--3--4---5-6--6--|
   .                                   .

Section 3
d|-----------------------------------------------------------------------------------------|
A|-----------------------------------------------------------------------------------------|
F|------4-3------4-3--------------------------4-3------4-3-6h7p6p0-5h6p5p0-4h5p4p0-3h4p3p0-|
C|------4-3------4-3--------------------------4-3------4-3---------------------------------|
G|------2-1------2-1-3333-4444-3333-2222------2-1------2-1---------------------------------|
D|-0000-2-1-0000-2-1---------------------0000-2-1-0000-2-1---------------------------------|
   ....     ....                         ....     ....

d|---------------------------------------------------------------------------------|
A|---------------------------------------------------------------------------------|
F|------4-3------4-3--------------------------4-3------4-3-------------------------|
C|------4-3------4-3--------------------------4-3------4-3-------------------------|
G|------2-1------2-1-3333-4444-3333-2222------2-1------2-1-----2-3---------5-6-----|
D|-0000-2-1-0000-2-1---------------------0000-2-1-0000-2-1-1--------3--4--------6--|
   ....     ....                         ....     ....    TP - - - - - - - - - - - |

Repeat Section 3
Replace final tremolo picking note with
d|------|
A|------|
F|------|
C|------|
G|------|
D|--6\--|

Section 4
Guitar 1
d|-------------------------------------------------------------------|
A|-------------------------------------------------4--444-6---6-6-6--|
F|-------------------------5555--------------------6b8888-8b10101010-|
C|-6-6--6-6-6--6-7777-6666------6666-5-5--5-5-5--5-------------------|
G|-6-6--6-6-6--6---------------------5-5--5-5-5--5-------------------|
D|-4-4--4-4-4--4---------------------3-5--3-3-3--3-------------------|

Guitar 2
d|-------------------------------------------------------|
A|-------------------------------------------------------|
F|-4-4--4-4-4--4-4-4--4-4-4--4-3-3--3-3-3----------------|
C|-6-6--6-6-6--6-6-6--6-6-6--6-5-5--5-5-5------5------5--|
G|-6-6--6-6-6--6-6-6--6-6-6--6-5-5--5-5-5------4------4--|
D|-4-4--4-4-4--4-4-4--4-4-4--4-3-3--3-3-3--1-3-3--1-4-3--|
                                           . .    . .

Guitar 1
d|-----------------------------------------------------------------|
A|-----------------------------------------------------------------|
F|-------------------------5555------------------------------------|
C|-6-6--6-6-6--6-7777-6666------6666-5-5--5-5-5--5-5-5-5-5-5-5-5-5-|
G|-6-6--6-6-6--6---------------------5-5--5-5-5--5-5-5-5-5-5-5-5-5-|
D|-4-4--4-4-4--4---------------------3-5--3-3-3--3-3-3-3-3-3-3-3-3-|
                                                   . . . . . . . .
Guitar 2
d|-----------------------------------------------------------|
A|-----------------------------------------------------------|
F|-4-4--4-4-4--4-4-4--4-4-4--4-3-3--3-3-3--------------------|
C|-6-6--6-6-6--6-6-6--6-6-6--6-5-5--5-5-5--5-5-5-5-5-5-5-5-5-|
G|-6-6--6-6-6--6-6-6--6-6-6--6-5-5--5-5-5--5-5-5-5-5-5-5-5-5-|
D|-4-4--4-4-4--4-4-4--4-4-4--4-3-3--3-3-3--3-3-3-3-3-3-3-3-3-|
                                             . . . . . . . .

NOTE: Gradually release the palm mutes at the end

Transition
Guitar 1
d|----------------------|
A|----------------------|
F|-3--3--3--3--4--3--2--|
C|-4--4--4--4--5--4--3--|
G|-4--4--4--4--5--4--3--|
D|-2--2--2--2--3--2--1--|

Guitar 2
d|-------------------------|
A|-------------------------|
F|-------------------------|
C|-4--4--4--4---5---4------|
G|-4--4--4--4---5---4------|
D|-2--2--2--2-003-002-001~-|
              ..  ..  ..

Repeat Section 3 but end with...
d|--------------------------------|
A|--------------------------------|
F|--------------------------------|
C|--------------------------------|
G|-------2-333------------5-6-----|
D|-11111-------3-3-4-4-4-------6\-|
NOTE: Same as the previous ending with a slowing tremolo

Section 5
Both Guitars
d|---------------------------------------------|
A|-------0---------0---------0----10-10--10-10-|
F|-------0---------0---------0-----x--x---x--x-|
C|-4--3----3-4--3----3-4--3----3---9--9---9--9-|x3
G|-4--3----3-4--3----3-4--3----3---------------|
D|-4--3----3-4--3----3-4--3----3---------------|

Guitar 1
d|---------------------------------------------------------|
A|-------0---------0---------0----10-10--10-10~-(let-ring)-|
F|-------0---------0---------0-----x--x---x--x-------------|
C|-4--3----3-4--3----3-4--3----3---9--9---9--9~---t19------|
G|-4--3----3-4--3----3-4--3----3---------------------------|
D|-4--3----3-4--3----3-4--3----3---------------------------|

d|--------------------------------------------------------|
A|-------0---------0---------0----10-10--10---------------|
F|-------0---------0---------0-----x--x---x---------------|
C|-4--3----3-4--3----3-4--3----3---9--9---9--9------------|
G|-4--3----3-4--3----3-4--3----3-------------8-(let-ring)-|
D|-4--3----3-4--3----3-4--3----3-------------7------------|

Section 6 (Clean)
Guitar 1
d|--0-------0---0---0--------------0--0---0-|
A|-6----------6---6---------------------6---|
F|------------------------------3-----------|
C|------------------------2---2-------------|
G|------------------------------------------|
D|------------------------------------------|

Guitar 2
d|--0------0--------------------------------|
A|-6-----6---8--------9----------5-5--------|
F|------------------9---12-----------8------|
C|------------------------------------------|
G|------------------------------------------|
D|------------------------------------------|
NOTE: This section and the following were very difficult to hear correctly and I make no promises

Section 7(Distortion)
d|-0-------0------0------0-------0-------0------|
A|-6-(x16)-9-(x8)-5-(x8)-6-(x16)-12-(x8)-9-(x8)-|
F|-9-------12-----8------9-------15------12-----|
C|----------------------------------------------|
G|----------------------------------------------|
D|----------------------------------------------|

d|-0-------0------0------0-------0-------0----------|
A|-6-(x16)-9-(x8)-5-(x8)-6-(x16)-12-(x8)-9-(x6)-----|
F|-9-------12-----8------9-------15------12---------|
C|--------------------------------------------------|
G|--------------------------------------------------|
D|----------------------------------------------12\-|

Section 8
Both Guitars
d|---0---0---0---0---0---0-----------0---0---0-------------------------|
A|---4---4---4---4---4---4-----------4---4---4-------------------------|
F|---------------------------------------------------------------------|
C|-------------------------2-3-7-6-------------2-3-7-6-----------------|
G|-2---2---2---2---2---2---2-3-7-6-2---2---2---2-3-7-6-----------------|
D|-0---0---0---0---0---0---0-1-5-4-0---0---0---0-1-5-4-/6~-\2~-/5~-\1~-|
   .   .   .   .   .   .           .   .   .

Guitar 1
d|---0---0---0---0---0---0---------------------0---0---0-------------------------|
A|---4---4---4---4---4---4---------------------4---4---4-------------------------|
F|---------------------------------4h5-4-3---------------6--10--9--5--4--3-------|
C|-------------------------2-3-7-6---------6-------------6--10--9--5--4--3--2--1-|
G|-2---2---2---2---2---2---2-3-7-6-----------2---2---2---4---8--7--3--2--1--3--2-|
D|-0---0---0---0---0---0---0-1-5-4-----------0---0---0---4---8--7--3--2--1--3--2-|
   .   .   .   .   .   .                     .   .   .  

Guitar 2
d|---0---0---0---0---0---0---------------------0---0---0-------------------------|
A|---4---4---4---4---4---4---------------------4---4---4-------------------------|
F|---------------------------------4h5-------------------6--10--9--5--4--3-------|
C|-------------------------2-3-7-6-----6-3---------------6--10--9--5--4--3--2--1-|
G|-2---2---2---2---2---2---2-3-7-6-----------2---2---2---4---8--7--3--2--1--3--2-|
D|-0---0---0---0---0---0---0-1-5-4-----------0---0---0---4---8--7--3--2--1--3--2-|
   .   .   .   .   .   .                     .   .   .     

Both Guitars
d|---0---0---0---0---0---0-----------0---0---0-------------------------|
A|---4---4---4---4---4---4-----------4---4---4-------------------------|
F|---------------------------------------------------------------------|
C|-------------------------2-3-7-6-------------2-3-7-6-----------------|
G|-2---2---2---2---2---2---2-3-7-6-2---2---2---2-3-7-6-----------------|
D|-0---0---0---0---0---0---0-1-5-4-0---0---0---0-1-5-4-/6~-\2~-/5~-\1~-|
   .   .   .   .   .   .           .   .   .

Guitar 1
d|---0---0---0---0---0---0---------------------0---0---0-------------------------|
A|---4---4---4---4---4---4---------------------4---4---4-------------------------|
F|---------------------------------4h5-4-3*~-------------6--10--9--5--4--3-------|
C|-------------------------2-3-7-6-----------------------6--10--9--5--4--3--2--1-|
G|-2---2---2---2---2---2---2-3-7-6-----------2---2---2---4---8--7--3--2--1--3--2-|
D|-0---0---0---0---0---0---0-1-5-4-----------0---0---0---4---8--7--3--2--1--3--2-|
   .   .   .   .   .   .                     .   .   .  

Guitar 2
d|---0---0---0---0---0---0---------------------0---0---0-------------------------|
A|---4---4---4---4---4---4---------------------4---4---4-------------------------|
F|---------------------------------4h5-------------------6--10--9--5--4--3-------|
C|-------------------------2-3-7-6-----6-3---------------6--10--9--5--4--3--2--1-|
G|-2---2---2---2---2---2---2-3-7-6-----------2---2---2---4---8--7--3--2--1--3--2-|
D|-0---0---0---0---0---0---0-1-5-4-----------0---0---0---4---8--7--3--2--1--3--2-|
   .   .   .   .   .   .                     .   .   .     

Guitar 1
d|----------------------------------------------|
A|----------------------------------------------|
F|-7--13--9--8--5--8--7--4--7--6--3--6--5---/-\-|
C|-7--13--9--8--5--8--7--4--7--6--3--6--5---/-\-|
G|-5--11--7--6--3--6--5--2--5--4--1--4--3---/-\-|
D|-5--11--7--6--3--6--5--2--5--4--1--4--3---/-\-|

Section 9
d|---------------------------------------------------------------------------------------|
A|---------------------------------------------------------------------------------------|
F|-----4-3-----4-3-------------------------4-3-----4-3--6h7p6p0-5h6p5p0-4h5p4p0-3h4p3p0--|
C|-----4-3-----4-3-------------------------4-3-----4-3-(5h6p5p0-4h5p4p0-3h4p3p0-2h3p2p0)-|
G|-2-2-2-1-2-2-2-1-3333-4444-3333-2222-2-2-2-1-2-2-2-1-----------(2nd-guitar)------------|
D|-0-0-2-1-0-0-2-1---------------------0-0-2-1-0-0-2-1-----------------------------------|
   . .     . .                         . .     . .

d|-----------------------------------------------------------------------------|
A|-----------------------------------------------------------------------------|
F|-----4-3-----4-3-------------------------4-3-----4-3----4--5--------7--8-----|
C|-----4-3-----4-3-------------------------4-3-----4-3-3--4--5--5--6--7--8--8\-|
G|-2-2-2-1-2-2-2-1-3333-4444-3333-2222-2-2-2-1-2-2-2-1-3--2--3--5--6--5--6--8\-|
D|-0-0-2-1-0-0-2-1---------------------0-0-2-1-0-0-2-1-1--2--3--3--4--5--6--6\-|
   . .     . .                         . .     . . 

d|---------------------------------------------------------------------------------------|
A|---------------------------------------------------------------------------------------|
F|-----4-3-----4-3-------------------------4-3-----4-3--6h7p6p0-5h6p5p0-4h5p4p0-3h4p3p0--|
C|-----4-3-----4-3-------------------------4-3-----4-3-(5h6p5p0-4h5p4p0-3h4p3p0-2h3p2p0)-|
G|-2-2-2-1-2-2-2-1-3333-4444-3333-2222-2-2-2-1-2-2-2-1-----------(2nd-guitar)------------|
D|-0-0-2-1-0-0-2-1---------------------0-0-2-1-0-0-2-1-----------------------------------|
   . .     . .                         . .     . .

d|-------------------------------------------------------------------------|
A|-------------------------------------------------------------------------|
F|-----4-3-----4-3-------------------------4-3-----4-3----4--5--------7----|
C|-----4-3-----4-3-------------------------4-3-----4-3-3--4--5--5--6--7--8-|
G|-2-2-2-1-2-2-2-1-3333-4444-3333-2222-2-2-2-1-2-2-2-1-3--2--3--5--6--5--8-|
D|-0-0-2-1-0-0-2-1---------------------0-0-2-1-0-0-2-1-1--2--3--3--4--5--6-|
   . .     . .                         . .     . . 

Outro Riff 1 (The music begins to fade short after this starts)
d|-----------------------------|
A|-----------------------------|
F|-8-9-------------------------|
C|-8-9-----3-3-3--3-3-3--3-3-3-|x3
G|-6-7-----3-3-3--3-3-3--3-3-3-|
D|-6-7-\1--1-1-1--1-1-1--1-1-1-|
           . . .  . . .  . . .

Guitar 1
d|-----------------------------------|
A|-----------------------------------|
F|-8-9---------------9-7---7-6---6-5-|
C|-8-9-----3-3-3--3------8-----7-----|
G|-6-7-----3-3-3--3------------------|
D|-6-7-\1--1-1-1--1------------------|
           . . .  .
Guitar 1
d|-----------------------------------|
A|-----------------------------------|
F|-8-9-------------------------------|
C|-8-9-----3-3-3--3--9-7---7-6---6-5-|
G|-6-7-----3-3-3--3------8-----7-----|
D|-6-7-\1--1-1-1--1------------------|
           . . .  .

Outro Riff 2 (This riff continues as the track fades to silent)
Guitar 1
d|-----------------------------------|
A|-----------------------------------|
F|-------------------9-7---7-6---6-5-|
C|-3-3-3-333333-3-3------8-----7-----|
G|-3-3-3-333333-3-3------------------|
D|-1-1-1-111111-1-1------------------|
   . . . ...... . .

Guitar 2
d|-----------------------------------|
A|-----------------------------------|
F|-----------------------------------|
C|-3-3-3-333333-3-3--9-7---7-6---6-5-|
G|-3-3-3-333333-3-3------8-----7-----|
D|-1-1-1-111111-1-1------------------|
   . . . ...... . .

Holy crap, that was one of the hardest tabs I've ever done.
I would suggest listening to the song part by part and try to match sections up
because this is a challenging song with a lot of variation going on.
This gets pretty close in a lot of areas, but I am not going to pretend that it is 100%.
I hope you enjoy it, or that's gonna' feel like a lot of wasted time.
Please rate & comment.
Thanks,
millarso

| /  slide up
| \  slide down
| h  hammer-on
| p  pull-off
| ~  vibrato
| +  harmonic
| TP tremolo picking
Suggest correction
Give kudos to tab author, rate the tab!
1 2 3 4 5
comments
print report bad tab
3 comments total.
0 reply
robnewland 140 wrote on February 15 2013, 02:03 pm

Holy shit, you actually did it. When I can be bothered to restring my guitar, I'm definitely learning this.

0 reply
millarso 2,410 wrote on February 15 2013, 02:09 pm

Thanks, brah.
I hope it's easy enough to follow.

0 reply
robnewland 140 wrote on February 16 2013, 04:03 pm

I'm just about to restring my guitar, hopefully will start learning tonight! I followed the tab through whilst listening to the track and on paper it seems sound, I'll let you know if can make any corrections as I'm learning.

guest
You may want to rate the tab now too:
select rating
Wanna post a correction for this tab? Suggest correction