Oops, an error
Loading. Please wait.

Dark Horse Tab

version 2
version 2

Whole song

Interactive

3,805 views 6 this week
no commentswrite comment
1 2 3 4 5
please rate
add to favorites
launch autoscroll
font size
0
reset
how to read this tab
guitar tuner
Autoscroll
slow
fast
+/-
esc
set tempo
stop
Help us to improve Ultimate-Guitar.com Take our survey!
×
Author
Difficulty
Tuning
intermediate
C G C F A D
-----------------------------------------------------------------
Dark Horse - Converge
-----------------------------------------------------------------
Tabbed by: Jake Miller (millarso)
Email: millarso2.0@gmail.com
Tuning: Drop C

Intro
D|-----------------------------|
A|-----------------------------|
F|-----------------------------|
C|-----------------\\\\\\\\\\\-|
G|--------/5~------\pickslide\-|
C|-(bass)----------\\\\\\\\\\\-|

Section 1
D|-------------------------------------------|
A|-------------------------------------------|
F|-7p0--14p12p10p0-9p0-10p0-7p0-10p0-9p0-5p0-|
C|-------------------------------------------|x8
G|-------------------------------------------|
C|-------------------------------------------|

Guitar 1
D|----13----13----13----6------8------|
A|-15----15----15-----8---8/10---10\--|
F|------------------------------------|
C|------------------------------------|
G|------------------------------------|
C|------------------------------------|

Guitar 2
D|---------------------------------|
A|---------------------------------|
F|-----------------------3-----5---|
C|-10----8----7---5----5---5/7---7-|
G|----12---10---8---7--------------|
C|---------------------------------|

Repeat Section 1

Section 2
D|--------------------------------------------------|
A|--------------------------------------------------|
F|-7-7-7-7--10--6-6-6-6--8--7-7-7-7--10-------------|
C|-7-7-7-7--10--6-6-6-6--8--7-7-7-7--10--6-6-66-6-6-|x2
G|-5-5-5-5---8--4-4-4-4--6--5-5-5-5---8--x-x-xx-x-x-|
C|---------------------------------------6-6-66-6-6-|

Guitar 1
D|----13----13----13---------------------|
A|-15----15----15--------11-------13-----|
F|--------------------12----12/14----14\-|
C|---------------------------------------|
G|---------------------------------------|
C|---------------------------------------|

Guitar 2
D|---------------------------------------|
A|---------------------------------------|
F|----10----10----10-----12-------14-----|
C|-12----12----12-----14----14/15----15\-|
G|---------------------------------------|
C|---------------------------------------|

Repeat Section 1
Repeat Section 2

Section 3
D|-------------------------------------------------------------------------------------|
A|-11----------------10-10-------------------7-----------------------4-----------------|
F|-13b15151515151515-12-12b14141414141414r12-10b11-11-11-11-11-11-11-7b8-8-8-8-8-8-8r7-|
C|-------------------------------------------------------------------------------------|x2
G|-------------------------------------------------------------------------------------|
C|-------------------------------------------------------------------------------------|

D|-----------------------------------------------------------------|
A|-113-3-3-3-3-1-3-4-4-4-4-4-4-4-4-446-6-6-6-6-4-6-8-8-8-8-8-8-8-8-|
F|-^---------------------------------------------------------------|
C|-1's-------------------------------------------------------------|
G|-----------------------------------------------------------------|
C|-----------------------------------------------------------------|

D|---------------------------------------------------------------------------------------------|
A|-8810-10-10-10-10-8-10-11-11-11-11-11-11-11-11-111113-13-13-13-13-11-13-13b15-15-15-15-15-15-|
F|---------------------------------------------------------------------------------------------|
C|---------------------------------------------------------------------------------------------|
G|---------------------------------------------------------------------------------------------|
C|---------------------------------------------------------------------------------------------|

Section 4
D|---------------------------------------------------------|
A|-6-------------------------------------------------------|
F|-7-------7--10--6-------6--8--7-------7--10--------------|
C|-7-------7--10--6-------6--8--7-------7--10--6-6-----6-6-|x4
G|-5-0-0-0-5---8--4-0-0-0-4--6--5-0-0-0-5---8--x-x-0-0-x-x-|
C|---0-0-0----------0-0-0---------0-0-0--------6-6-0-0-6-6-|
     . . .          . . .         . . .            . .
D|---------------|
A|---------------|
F|---------------|
C|--0------------|
G|--0(let-ring)--|
C|--0------------|

Section 5 (almost identical to Section 1)
D|-------------------------------------------|
A|-------------------------------------------|
F|-7p0--14p12p10p0-9p0-10p0-7p0-10p0-9p0-5p0-|
C|-------------------------------------------|x8
G|-------------------------------------------|
C|-------------------------------------------|

D|----13----13----13------------------------------|
A|-15----15----15--------11-------15--------------|
F|--------------------12----12/14----14(let-ring)-|
C|------------------------------------------------|
G|------------------------------------------------|
C|------------------------------------------------|

The lead part is hard to hear right in the beginning, but I think it sounds about right this way.
Please rate & comment.
Thanks,
millarso
Suggest correction
What's this?
You can suggest a correction to this tab. Community and Mods will review your correction and vote to approve or reject it.
comments
We did not receive enough feedback on this tab! Please rate:
print report bad tab
1 2 3 4 5
guest
You may want to rate the tab now too:
select rating
Please do not post tabs as comments. Select "correction" instead!