Oops, an error
Loading. Please wait.

Distance And Meaning Tab

version 2
version 2

Whole song

3,666 views 9 this week
1 commentread comment
1 2 3 4 5
please rate
add to favorites
launch autoscroll
font size
0
reset
how to read this tab
guitar tuner
Autoscroll
slow
fast
+/-
esc
set tempo
stop
Help us to improve Ultimate-Guitar.com Take our survey!
×
-------------------------------------------------------------------------------
                             Distance and Meaning- Converge
-------------------------------------------------------------------------------
Tabbed by:madmax

Email:madmax666@gmx.at

Tuning:C G C F Ab C  it´s how kurt plays on jane doe
Main riff
e|22-22---00-----------------------------------------------------------------|
B|11-11-0-00-----------------0-----------------------------------------------|
G|44-44-4/77-----3 times ----7~----------------------------------------------|
D|---------------------------------------------------------------------------|
A|---------------------------------------------------------------------------|
E|---------------------------------------------------------------------------|

e|22-22----00------------------|
B|11-11-0--00---------------0--|
G|44-44-4/-77—--3 times--------|     7+ several artificial harmonics at different 
with your right hand
D|-----------------------------|
A|-----------------------------|
E|-----------------------------|

e|22-22---00-------------------------------------------------------------------|
B|11-11-0-00-----------0-------------------------------------------------------|
G|44-44-4/77—3 times   7~------------------------------------------------------|
D|-----------------------------------------------------------------------------|
A|-----------------------------------------------------------------------------|
E|-----------------------------------------------------------------------------|

e|22-22---00-------------------------------------------------------------------|
B|11-11-0-00-------------------------------------------------------------------|
G|44-44-4/77—3 times  7/20-----------------------------------------------------|
D|-----------------------------------------------------------------------------|
A|-----------------------------------------------------------------------------|
E|-----------------------------------------------------------------------------|

Vers
e|---------------------------------------------------------------------------|
B|---------------------------------------------------------------------------|
G|4444444/7777777/4----3 times then -----------------------------------------|
D|-----------------------------------788--344--566---------------------------|2 times
A|-----------------------------------566--122--566---------------------------|
E|---------------------------------------------566---------------------------|

Pre-chorus

e|---------------------------------------------------------------------------|
B|-------0---5--5--------0---5~----------------------------------------------|
G|44444444/777-77-/4444444/777~----------------------------------------------|
D|---------------------------------------------------------------------------|
A|---------------------------------------------------------------------------|
E|---------------------------------------------------------------------------|
pppppppp pp p    ppppppp pp


chorus 2 times
e|---------------------------------------------------------------------------|
B|---------------------------------------------------------------------------|
G|77777777777777773333333322 22 22-----5+------------------------------------|
D|77777777888888883333333333 33 33-------------------------------------------|
A|55555555666666661111111100-00-00-------------------------------------------|
E|---------------------------------------------------------------------------|


Main riff
Vers
Pre-chorus
Chorus 4 times
Bridge 2 times

e|--------------0-~------------------------------------------------------------|
B|--------------0~-------------------------------------------------------------|
G|--------------4~-------------------------------------------------------------|
D|------------------------------------0~---------------------------------------|
A|---3-6-0---3-----------3---3-6-3----0~---------------------------------------|
E|-4-------4---------------4-------4  3----------------------------------------|

Break 4 times

e|-----------------------------------------------------------------------------|
B|------------------------00—-8/12121212121212---------------------------------|
G|------------------------44—--------------------------------------------------|
D|----------------------------5/9-9-9-9-9-9-9----------------------------------|
A|-450-450-88-450-450-88-------------------------------------------------------|
E|-450-450-88-450-450-88-------------------------------------------------------|


Outro several times
e|--9 9 9 9 9 9 9------------9 9 9 9 9 9 9 9 ----------------------------------|
B|8/12121212121212-xxxxxxxxx/1212121212121212----------------------------------|
G|--9 9 9 9 9 9 9------------9-9-9-9-9-9-9-9-----------------------------------|
D|5/9-9-9-9-9-9-9—xxxxxxxxx/-9-9-9-9-9-9-9-9-----------------------------------|
A|-----------------------------------------------------------------------------|
E|-----------------------------------------------------------------------------|

Second guitar plays bridge
This is my second (improved) version of this song. It´s almost perfect but it is a very 
song to tab out. Please rate....


| /  slide up
| \  slide down
| h  hammer-on
| po pull-off
| ~  vibrato
| +  harmonic
|p mute note
===============================================================================
Suggest correction
What's this?
You can suggest a correction to this tab. Community and Mods will review your correction and vote to approve or reject it.
comments
We did not receive enough feedback on this tab! Please rate:
print report bad tab
1 2 3 4 5
1 comment total.
0 reply
djerzinski 176 wrote on August 18 2009, 10:11 am

Hi, here is some corrections: (but i'm not 100% sure)

Intro:
e|88-88----0-----------------------------------------------------------------|
B|00-00-0--0---------0-----------------------------------------------|
G|xx-xx-44/7---------7~----------------------------------------------|
D|99-99------------------------------------------------------------------------|
A|---------------------------------------------------------------------------|
E|---------------------------------------------------------------------------|

For the harmonics with the right hand, how do you do that?

Verse:
e|---------------------------------------------------------------------------|
B|---------------------------------------------------------------------------|
G|4444 444/7 7777 77/4---- -----------------------------------------|
D|-----------------------------------777--333--------------------------------|
A|-----------------------------------566--122--555---------------------------|
E|---------------------------------------------566---------------------------|
(He plays 5b instead)

e|-----------------------------------------------------------------------------|
B|------------------------00—-8/12121212121212----------------------|
G|------------------------44—----------------------------------------|
D|---0---0------0---0---------5/8-8-8-8-8-8-8----------------------------------|
A|-450-450-88-450-450-88-------------------------------------------------------|
E|-45--45--88-45--45--88-------------------------------------------------------|

For this part, I'm not sure, I didnt spend too much time on it.

guest
You may want to rate the tab now too:
select rating
Please do not post tabs as comments. Select "correction" instead!