Oops, an error
Loading. Please wait.

Farewell Note To This City Bass Tab

version 1
version 1

Whole song

Interactive

421 views 1 this week
no commentswrite comment
1 2 3 4 5
2 more votes to show rating
add to favorites
launch autoscroll
font size
0
reset
guitar tuner
Autoscroll
slow
fast
+/-
esc
set tempo
stop
Help us to improve Ultimate-Guitar.com Take our survey!
×
Author
Difficulty
Tuning
intermediate
D G C F A D
CONVERGE - FARWELL NOTE TO THIS CITY

F|-----------------------------------------------------------|
C|---------5-4-----------5-4-----------5-4-----------7-5-4-5-|
G|-2-2-2-2-----5-3-3-3-3-----5-4-4-4-4-----5-5-5-5-5---------| x4
D|-----------------------------------------------------------|

F|----------------------------------------------------------|
C|---------5-4------------5-4-----------------5-4-----5-4---|
G|-2-2-2-2-----5-0-0-0-0------5-5-5-5-5-5-5-5-----5-5-----5-|
D|----------------------------------------------------------|

F|---------------------------------------------------------|
C|---------5-4-----------5-4-----------5-4-----------5-4---|
G|-2-2-2-2-----5-0-0-0-0-----5-5-5-5-5-----5-5-5-5-5-----5-|
D|---------------------------------------------------------|

F|---------------------------------------------------------|
C|---------5-4-----------5-4-------------------------5-4---|
G|-2-2-2-2-----5-0-0-0-0-----5-5-5--0-5-5--0-5--5--5-----5-|
D|---------------------------------------------------------|

F|---------------------------------------------------------|
C|---------5-4-----------5-4-------------------------------|
G|-2-2-2-2-----5-0-0-0-0-----5-5---------------------------|
D|---------------------------------------------------------|

F|-------------------------------------------------------------|
C|---------5-4-----------5-4-----------5-4-----------5h7-5-4-5-|
G|-2-2-2-2-----5-3-3-3-3-----5-4-4-4-4-----5-5-5-5-5-----------| 
D|-------------------------------------------------------------|

F|-----------------------------------------------------------|
C|---------5-4-----------5-4-----------5-4---------4---4-5-4-|
G|-2-2-2-2-----5-3-3-3-3-----5-4-4-4-4-----5-5-5-5---5-------|
D|-----------------------------------------------------------|

F|-------------------------------------------------------------|
C|---------5-4-----------5-4-----------5-4-----------5h7-5-4-5-|
G|-2-2-2-2-----5-3-3-3-3-----5-4-4-4-4-----5-5-5-5-5-----------| 
D|-------------------------------------------------------------|

F|-----------------------------------------------------------|
C|---------5-4-----------5-4-----------5-4-------------------|
G|-2-2-2-2-----5-3-3-3-3-----5-4-4-4-4-----5-5-5-5-5-5-5-5-5-|
D|-----------------------------------------------------------|

F|---------------------------------------------------------|
C|---------5-4-----------5-4-----------5-4-----------5-4---|
G|-2-2-2-2-----5-0-0-0-0-----5-5-5-5-5-----5-5-5-5-5-----5-|
D|---------------------------------------------------------|

F|----------------------------------------------------------|
C|---------5-4------------5-4-----------------5-4-----5-4---|
G|-2-2-2-2-----5-0-0-0-0------5-5-5-5-5-5-5-5-----5-5-----5-|
D|----------------------------------------------------------|

F|---------------------------------------------------------|
C|---------5-4-----------5-4-------------------------5-4---|
G|-2-2-2-2-----5-0-0-0-0-----5-5-5--0-5-5--0-5--5--5-----5-|
D|---------------------------------------------------------|

F|---------------------------------------------------------|
C|---------5-4---------------------------------------------|
G|-2-2-2-2-----5-0-0-0-0-0-0-5-----------------------------|
D|---------------------------------------------------------|

F|-----------------------------------------|
C|-----------------------------------------|
G|-2-2-2-2-2-2-2-2-2-2---------------------| x4
D|---------------------3-3-3-3-3-5-5-5-5-5-|

F|------------------------------|
C|-------5-4-------4-5-4---2----|
G|-2-2-2-----5---5-------5------|
D|------------------------------|

F|------------------------------|
C|-------5-4-------4-5-4---2--0-|
G|-2-2-2-----5---5-------5------|
D|------------------------------|

F|--------------------------------------------|
C|--------------------------------------------|
G|-2------------------------------------------|
D|--------------------------------------------|

F|-----------------------------------------|
C|-----------------------------------------|
G|-2-2-2-2-2-2-2-2-2-2---------------------| x4
D|---------------------3-3-3-3-3-5-5-5-5-5-|

F|------------------------------|
C|-------5-4-------4-5-4---2----|
G|-2-2-2-----5---5-------5------|
D|------------------------------|

F|------------------------------|
C|-------5-4-------4-5-4---2--0-|
G|-2-2-2-----5---5-------5------|
D|------------------------------|

F|---------------------------------------------------|
C|-----------------5-5-5-5-4-4-------------4h5-7-5-4-|
G|-2-2-2-2-2-2-2-2-------------5-5-5-5-5-5-----------|
D|---------------------------------------------------|

F|---------------------------------------------|
C|-----------------5-5-5-5-4-4---------4-4-5-5-|
G|-2-2-2-2-2-2-2-2-------------5-5-5-5---------|
D|---------------------------------------------|

F|-------------------------------------------------------|
C|-----------------5-5-5-5-4-4-------------------5-5-4---|
G|-2-2-2-2-2-2-2-2-------------5-5--0-5-5--0-5-5-------5-|
D|-------------------------------------------------------|

F|-----------------------------------------------|
C|-----------------5-5-5-5-4-4-----------5--7----|
G|-2-2-2-2-2-2-2-2-------------5-----------------|
D|-----------------------------------------------|

F|--------------------------------------------------------|
C|-----------------5-5-5-5-4-4-----------------4-5--5-4---|
G|-2-2-2-2-2-2-2-2-------------5-5-5-5-5-5-5-5----------5-|
D|--------------------------------------------------------|

F|---------------------------------------------------------|
C|-----------------5-5-5-5-4-4-----------------4-5--7-5-4--|
G|-2-2-2-2-2-2-2-2-------------5-5-5-5-5-5-5-5-------------|
D|---------------------------------------------------------|

F|-----------------------------------------------------|
C|-----------------5-5-5-5-5-4-------------------5-4---|
G|-2-2-2-2-2-2-2-2-------------5-5--0-5-5--0-5-5-----5-|
D|-----------------------------------------------------|

F|-----------------------------------------------------|
C|-----------------5-5-5-5-4-4-------------------------|
G|-2-2-2-2-2-2-2-2-------------5-----------------------|
D|-----------------------------------------------------|
Suggest correction
Give kudos to tab author, rate the tab!
1 2 3 4 5
comments
print report bad tab
guest
You may want to rate the tab now too:
select rating
Wanna post a correction for this tab? Suggest correction