Oops, an error
Loading. Please wait.

First Light Last Light Tab

6,377 views 27 this week
no commentswrite comment
1 2 3 4 5
please rate
add to favorites
launch autoscroll
font size
0
reset
how to read this tab
guitar tuner
Autoscroll
slow
fast
+/-
esc
set tempo
stop
Help us to improve Ultimate-Guitar.com Take our survey!
×
Author
Tabbed by Mike T.
Questions:flamingclown2@hotmail.com
            www.highwaterwaltz.com
First Light
Tuning:(low to high) CGCFAD

  Reverb and overdrive   sb=slight bend   h=hold this out
D-------------------------------------------------------------------------------|
A-----3-------1sb--3h---------------------------------------------3h---------3h-|
F----(3)-----------3-3-2-0h---------------------------------------3h---------3h-|
C-3/5-----5/3---------------5/7-7-7/8-8-----------5/3h------------x----------x--|
G-------------------------------------6-8/10-5--------3-----------x----------x--|
C---------------------------------------------------------5-7-8-7-5--5/7-7-8-1--|

Last Light
Tuning:(low to high) CGCFAD

   add feedback
D-------------------------------|   |-----|
A-------------------------------|   |-----|
F-------------------------7-7---|   |-7-7-|
C--3/10--3/10---3/6--3/6--6-6---|x4 |-6-6-|
G--x-x---x-x----x-x--x-x--5-5---|   |-5-5-|
C--3/10--3/10---3/6--3/6--------|   |-----|


D-------10----10----10-----------|    |-----|
A--------------------------------|    |-----|
F--------------------------7-7---|    |-7-7-|
C---3/10--3/10---3/6--3/6--6-6---| X4 |-6-6-|
G---x-x---x-x----x-x--x-x--5-5---|    |-5-5-|
C---3/10--3/10---3/6--3/6--------|    |-----|

(1:18)
clean
D------------------------------------|
A----------------------------------3-|
F----------------------------------3-|
C----------------------------------x-|X2
G-----5-----3--0h------------------x-|
C-3/5---5/3----8-8-7-5--5/7-7-7/8--1-|

(1:44)
clean w/flanger
D---------------------------------------|
A--3-------1sb--3h--------------------3-|
F--3------------3-3-2-0h--------------3-|
C-----5-5/3---------------5/7-7-7/8-8-x-|
G-------------------------------------x-|
C-------------------------------------1-|

(2:11) w/phaser or flanger
D----------------------|
A----------------------|
F--------------------7-|
C-3h5-3h5---3h6-3h6--6-|
G-3---3-----3---3----5-|
C----------------------|

(2:51)                (3:04) weird rhythm
D-----------------|  |-10-10-|            |----|
A-----------------|  |-9--9--|            |----|
F-----------------|  |-7--7--|            |-7--|
C-3-5-3-5-3-6-3-6-|  |-------|-           |-6--|
G-3-3-3-3-3-3-3-3-|  |-------|-4          |-5--|
C-----------------|  |-------|-4          |----|
Suggest correction
Give kudos to tab author, rate the tab!
1 2 3 4 5
comments
print report bad tab
guest
You may want to rate the tab now too:
select rating
Wanna post a correction for this tab? Suggest correction