Oops, an error
Loading. Please wait.

Heartless Tab

version 1
version 1

Whole song

Interactive

4,100 views 6 this week
no commentswrite comment
1 2 3 4 5
please rate
add to favorites
launch autoscroll
font size
0
reset
how to read this tab
guitar tuner
Autoscroll
slow
fast
+/-
esc
set tempo
stop
Help us to improve Ultimate-Guitar.com Take our survey!
×
That's pretty much how this song is i think. If you have questions just send
e-mail: oskarinn_89@hotmail.com

E||--------------------------------|
B||--------------------------------|
G||-----4--4--------5--4--4--------| X12
D||--------------------------6--6--|
A||--------------------------------|
E||--3--------6--6-----------------|


E||--------------------------------------------------|
B||--------------------------------------------------|
G||-------------------------------------12-----------| X3 
D||------------------------8888888888-x--------------|
A||1-1-1-x-1-1-x-1-1-x-4-4-7777777777-x-11-----------|
E||1-1-1-x-1-1-x-1-1-x-4-4-7777777777-x-11-----------|



E||---------------------------------------------------|
B||---------------------------------------------------|
G||-------------------------------------12------------| 
D||------------------------8888888888-x---------------|
A||-1----1/4----1----1/4---7777777777-x-11------------|
E||-1----1/4----1----1/4---7777777777-x-11------------|




E||--------------------------------|
B||--------------------------------|
G||-----4--4--------5--4--4--------| X8
D||--------------------------6--6--|
A||--------------------------------|
E||--3--------6--6-----------------|
The 5th time this comes, the guitar below 
comes in 4 times.
E||--------------------------------|
B||--------------------------------|
G||--------------------------------| X4
D||--------------------------------| 
A||-3-9-6--10-9--6-----------------|
E||-3-9-6--10-9--6-----------------|


E||--------------------------------------------------|
B||--------------------------------------------------|
G||-------------------------------------12-----------| X3 
D||------------------------8888888888-x--------------|
A||1-1-1-x-1-1-x-1-1-x-4-4-7777777777-x-11-----------|
E||1-1-1-x-1-1-x-1-1-x-4-4-7777777777-x-11-----------|



E||---------------------------------------------------|
B||---------------------------------------------------|
G||-------------------------------------12------------| 
D||------------------------8888888888-x---------------|
A||-1----1/4----1----1/4---7777777777-x-11------------|
E||-1----1/4----1----1/4---7777777777-x-11------------|




E||----------------------|
B||----------------------|
G||----------------------| X4 
D||----------------------|
A||-3---3---3-3----------|
E||-3---3---3-3----------|


E||--------------------------------|
B||--------------------------------|
G||--------------------------------| X8
D||--------------------------------| 
A||-3-9-6--10-9--6-----------------|
E||-3-9-6--10-9--6-----------------|


E||--------------------------------|
B||--------------------------------|
G||--------------------------------| X8
D||--------------------------------| 
A||-1-7-4--8-7--4------------------|
E||-1-7-4--8-7--4------------------|


E||------------------------------------------------------------------------|
B||------------------------------------------------------------------------|
G||----4-----5/4-------4-----5/4--------4-----5/4-------4-----5/4----------| 
D||--------------6--------------------------------6------------------------|
A||-3-----6---------3-----6-------6--3-----6---------3-----6------6----2---|
E||-3-----6---------3-----6----------3-----6---------3-----6-----------2---|


E||------------------------------------------------------------------------|
B||------------------------------------------------------------------------|
G||----2-----3/2-------2-----3/2--------2-----3/2-------2-----3/2----------| 
D||--------------4--------------------------------4------------------------|
A||-1-----4---------1-----4-------4--1-----4---------1-----4------4----4---|
E||-1-----4---------1-----4----------1-----4---------1-----4-----------4---|


E||------------------------------------------------------------------------|
B||------------------------------------------------------------------------|
G||----4-----5/4-------4-----5/4--------4-----5/4-------4-----5/4----------| 
D||--------------6--------------------------------6------------------------|
A||-3-----6---------3-----6-------6--3-----6---------3-----6------6----2---|
E||-3-----6---------3-----6----------3-----6---------3-----6-----------2---|


E||------------------------------------------------------------------------|
B||------------------------------------------------------------------------|
G||----2-----3/2-------2-----3/2--------2-----3/2-------2-----3/2----------| 
D||--------------4--------------------------------4------------------------|
A||-1-----4---------1-----4-------4--1-----4---------1-----4------4----4---|
E||-1-----4---------1-----4----------1-----4---------1-----4-----------4---|



E||-------------------------------------------------------------------------|
B||-------------------------------------------------------------------------|
G||-------------------------------------------------------------------------| 
D||-------------------------------------------------------------------------|
A||-4--3----3----3----3----3----3----3----3--2--1----1-1----1----1-1----1-1-|
E||-4--3----3----3----3----3----3----3----3--2--1----1-1----1----1-1----1-1-|



E||-------------------------------------------|||||
B||-------------------------------------------|||||
G||-------------------------------------------|||||
D||-------------------------------------------|||||
A||-------------------------------------------|||||
E||--1-1----1-1----1----4-/3/2/1/0------------|||||




Suggest correction
Give kudos to tab author, rate the tab!
1 2 3 4 5
comments
print report bad tab
guest
You may want to rate the tab now too:
select rating
Please do not post tabs as comments. Select "correction" instead!