Oops, an error
Loading. Please wait.

Heaven In Her Arms Bass Tab

version 1
version 1

Whole song

Interactive

2,254 views 1 this week
no commentswrite comment
1 2 3 4 5
please rate
add to favorites
launch autoscroll
font size
0
reset
guitar tuner
Autoscroll
slow
fast
+/-
esc
set tempo
stop
Help us to improve Ultimate-Guitar.com Take our survey!
×
Author
ARTIST: Converge
Song: Heaven In Her Arms
Tabbed by: Ivan Garcia 
Credits: Converge
Tuning C (C,G,C,F)


F|--------------------------------------------|
C|--------------------------------------------|
G|-6-----------6------0h6---------------------|
C|--0-6-0-4-0-0-0-6-0----0--------------------|
4x

F|-------------|
C|-------------|
G|-------------|
C|-00000000000-|
4x

F|--------------------------------------------|
C|--------------------------------------------|
G|-6-----------6------0h6---------------------|
C|--0-6-0-4-0-0-0-6-0----0--------------------|
4x

F|----------------------------------------------|
C|----------------------------------------------|
G|----------------8-5--------------------8-5----|
C|-333-22-2-00-0-0-0-8-5-33-3-55-5-00-0-0-0-8-5-| 

then quickly...
F|-----------------------------------|
C|-----------------------------------|
G|----------------8-5----------------|
C|-333-22-2-00-0-0-0-8-5-33-3-55-5-0-| 

F|--------------------------------------------|
C|--------------------------------------------|
G|-6-----------6------0h6---------------------|
C|--0-6-0-4-0-0-0-6-0----0--------------------|
8x

F|----------------------------------------------|
C|----------------------------------------------|
G|----------------8-5--------------------8-5----|
C|-333-22-2-00-0-0-0-8-5-33-3-55-5-00-0-0-0-8-5-| 

then quickly...
F|-----------------------------------|
C|-----------------------------------|
G|----------------8-5----------------|
C|-333-22-2-00-0-0-0-8-5-33-3-55-5-0-| 

F|-------------------------------------------------------|
C|-------------------------------------------------------|
G|-------------------------------------------------------|
C|-55-55-555-55-555-55-555-555-00-00-000-00-000-00-00-00-|
2x

F|-------------------|
C|-------------------|
G|-----------7-5-8-4-|
C|-333-666-0---------| 
3x

then quickly...
F|------------|
C|------------|
G|------------|
C|-333-666-0--| 

F|-------------------------------------------------------|
C|-------------------------------------------------------|
G|-------------------------------------------------------|
C|-55-55-555-55-555-55-555-555-00-00-000-00-000-00-00-00-|
2x

F|-------------------|
C|-------------------|
G|-----------7-5-8-4-|
C|-333-666-0---------| 
3x

then quickly...
F|-----------------------|
C|-----------------------|
G|-----------------------|
C|-333-666-0-0-0-0-0-0-0-| 

F|--------------------------------------------|
C|--------------------------------------------|
G|-6---6-3h6-6---6-5--6---6-3h6-6---5-6-8-5---|
C|--000-0-----000-0----000-------0-3----------| 
2x

F|--------------------------------------------------------|
C|--------------------------------------------------------|
G|--------------------------------------------------------|
C|-3-000-3-0-2h3-3-000-1-00-3-000-3-0-2h3-3-000-1h4-4-----| 
2x

F|--------------------------------------------|
C|--------------------------------------------|
G|-6---6-3h6-6---6-5--6---6-3h6-6---5-6-8-5---|
C|--000-0-----000-0----000-------0-3----------| 

then quickly.....
F|--------------------------------|
C|--------------------------------|
G|-6---6-3h6-6---6-5--6---6-3h6-6-|
C|--000-0-----000-0----000--------| 

then quickly again....
F|-------------|
C|-------------|
G|-------------|
C|-0-0-0-1h4-4-| 
4x

OUTRO
F|-------------|
C|-------------|
G|-------------|
C|-0-0-0-1h4-0-|
Suggest correction
Give kudos to tab author, rate the tab!
1 2 3 4 5
comments
print report bad tab
guest
You may want to rate the tab now too:
select rating
Please do not post tabs as comments. Select "correction" instead!