Oops, an error
Loading. Please wait.

Hell To Pay Bass Tab

2,062 views 1 this week
no commentswrite comment
1 2 3 4 5
3 more votes to show rating
add to favorites
launch autoscroll
font size
0
reset
guitar tuner
Autoscroll
slow
fast
+/-
esc
set tempo
stop
Help us to improve Ultimate-Guitar.com Take our survey!
×
Author
Difficulty
Tuning
intermediate
C F A# D# G C
Hey everyone. This is a great song by Converge, and one of the few where I can 
actually hear everything going on with the bass. 
Couldn't find this tab on here, so I figured I'd have a go at it. 
Please feel free to correct me if there are any mistakes, or if you have any other 
helpful suggestions. 
Thank you, and enjoy!

(0:28-0:46)                              x2
F |--------------------------------------------|
C |------------------------------------------5-|       
G |--------------------------------------5-----|    
C |-5-2-2-2-2-2-2-2h1-0--5-2-2-2h1-0-5-7---5---|


(0:47-0:54)                              x1
F |----------------------------------------------|
C |---------------5----------------------------5-|
G |-----------5h6---6h5--------------------5-----|
C |-5-2-2-2-2-----------5--5-2-2-2h1-0-5-7---5---|


(0:55-1:13)                              x1
F |--------------------------------------------|
C |------------------------------------------5-|
G |--------------------------------------5-----|
C |-5-2-2-2-2-2-2-2h1-0--5-2-2-2h1-0-5-7---5---|

F |--------------------------------------------|
C |------------------------------------------5-|
G |-----------5h6-5-5--------------------5-----|
C |-5-2-2-2-2---------5--5-2-2-2h1-0-5-7---5---|


(1:14-1:22)                             x1            
F |--------------------------------------------|
C |------------------------------------------5-|
G |--------------------------------------5-----|
C |-5-2-2-2-2-2-2-2h1-0--5-2-2-2h1-0-5-7---5---|


(1:23-1:47)                              x2
F |-----------------------------------------------|
C |-----------------------------------------------|
G |----------------------------------101010101010-|
C |-78787878-5-78787878-10\-78787878--------------|

(Only play this at the end of the second time)
F |------------|
C |------------|
G |------------|
C |-78787878-5-|


Rest from 1:48 to 2:01, then....


(2:02-2:20)                                x2
F |--------------------------------------------|
C |------------------------------------------5-|
G |--------------------------------------5-----|
C |-5-2-2-2-2-2-2-2h1-0--5-2-2-2h1-0-5-7---5---|


(2:21-2:39)                                 x1
F |----------------------------------------------|
C |---------------5----------------------------5-|
G |-----------5h6---6h5--------------------5-----|
C |-5-2-2-2-2-----------5--5-2-2-2h1-0-5-7---5---|

F |--------------------------------------------|
C |------------------------------------------5-|
G |--------------------------------------5-----|
C |-5-2-2-2-2-2-2-2h1-0--5-2-2-2h1-0-5-7---5---|


(2:40-2:57)                                 x1
F |---------------------------------------------|
C |-------------------------------------------5-|
G |-----------------5h6-5-----------------5-----|
C |-5-2-2-2-2-2-2-2-------5-2-2-2h1-0-5-7---5---|

F |--------------------------------------------|
C |------------------------------------------5-|
G |--------------------------------------5-----|
C |-5-2-2-2-2-2-2-2h1-0--5-2-2-2h1-0-5-7---5---|


(2:58-3:19)                                  x2
F |-----------------------------------------------|
C |-----------------------------------------------|
G |----------------------------------101010101010-|
C |-78787878-5-78787878-10\-78787878--------------|

(Again, only the second time)
F |----------|
C |----------|
G |----------|
C |-78787878-|


(3:23-3:35)                                    x1
F-----------------------------------------|
C----------------------------0-5-0-343434-|
G-----------------------------------------|
C-5-0-3-2--5-0-2-3--5-0-3-2---------------|


(3:36-3:49)                                     x1
F-----------------------------------------|
C------------------------------5----------|
G----------------------------5---5-676767-|
C-5-0-3-2--5-0-2-3--5-0-3-2---------------|


(3:50-4:22) 
F---------|
C---------|
G---------|
C-5-0-3-2-|

Then end with...

F-----|
C-----|
G-----|
C-5-0-|

...and let it ring out. 

That's it! Hope you have as much fun as I did playing it.
Again, this is my tab, so don't steal it please. Thanks. 
Suggest correction
Give kudos to tab author, rate the tab!
1 2 3 4 5
comments
print report bad tab
guest
You may want to rate the tab now too:
select rating
Wanna post a correction for this tab? Suggest correction