Oops, an error
Loading. Please wait.

Hell To Pay Tab

version 1
version 1

Whole song

5,622 views 21 this week
no commentswrite comment
1 2 3 4 5
please rate
add to favorites
launch autoscroll
font size
0
reset
how to read this tab
guitar tuner
Autoscroll
slow
fast
+/-
esc
set tempo
stop
Help us to improve Ultimate-Guitar.com Take our survey!
×
Difficulty
Tuning
intermediate
C G C F A D
----------------------------------------------------------------------------
                             HELL TO PAY - Converge (Jane Doe)
----------------------------------------------------------------------------
Tabbed by: Mike Parker
E-mail: mparker80@gmail.com

Tuning: Drop C tuning (CGCFAD)

Opening riff. Distortion on, but volume knob turned down to about 2.  Make sure you keep 
dissonance of notes ringing throughout.

Play this twice
e|-----0--------------/3----------6\---------0-------------/3------0-0-0----|
B|-----5~-0---0------------5-----------------5~-0---0---------5-5-4-4-4-----|
G|--------4-4-3-3-3-/3---3----3/6---------------4-4-3-3-3-/3----------------|
D|--------------------------------------------------------------------------|
A|--------------------------------------------------------------------------|
E|--------------------------------------------------------------------------|

The bass comes in. Not entirely sure if rhythm guitar follows it, but it goes something like this.
e|--------------------------------------------------------------------------|
B|--------------------------------------------------------------------------|
G|--------------------------------------------------------------------------|
D|-------------------------------------------------------5------------------|
A|---------------------------------------------------2----------------------|
E|-----5--2--2--2--2--2--2--2-2-0--5--2--2--2--0--2/3--/5-------------------|

There's some creepy solo guitar in the background. Same tone as intro riff. This is the 
I could figure out.
e|-------7---------0----/12-------------------------------------------------|
B|---------5-----0---0-----12------------11----11----11----11---------------|
G|-----------4-3-------------12-11~---12----12----12----12------------------|
D|--------------------------------------------------------------------------|
A|--------------------------------------------------------------------------|
E|--------------------------------------------------------------------------|

e|-------7---------0----/12-----------------12--12--12--14--14--15--15------|
B|---------5-----0--0------12------------/15--15--15--17--17--17--17--------|
G|-----------4-3-------------12-11~-----------------------------------------|
D|--------------------------------------------------------------------------|
A|--------------------------------------------------------------------------|
E|--------------------------------------------------------------------------|

Heavy chorus part x4                               At fourth time, stop here
e|---------------------------------------------------------------------------|
B|-----------------0---------------------------------------------------------|
G|-----0-0-0-0-0-0-0-----0-0-0-0-0-0-0-~--0-0-0-0-0-0--12-12-12-12-12-12-12\-|
D|-----7-8-8-7-8-7-5~----7-8-8-7-8-7-11~--7-8-8-7-8-7--11-11-11-11-11-11-11\-|
A|-----7-8-8-7-8-7-5~----7-8-8-7-8-7-11~--7-8-8-7-8-7--12-12-12-12-12-12-12\-|
E|-----7-8-8-7-8-7-5~----7-8-8-7-8-7-11~--7-8-8-7-8-7------------------------|

Fourth time, bring distortion down and play this riff x4
e|--------------------------------------------------------------------------|
B|--------------------------------------------------------------------------|
G|---0--0-0-0---0--0--0-0--0------------------------------------------------|
D|---5~-2-2-1/--5~-5--2-2--1~-----------------------------------------------|
A|---5~-2-2-1/--5~-5--2-2--1~-----------------------------------------------|
E|---5~-2-2-1/--5~-5--2-2--1~-----------------------------------------------|
Note: while holding the "1s", push the neck with your arm to detune the guitar slightly. 
the little things that make this song so fucking sick :)

Just repeat those riffs and your in business. The solo is a distorted take on the intro. 
third time he plays the riff in the solo, he strums it quickly.

The same goes for the outro. Just play the post-chorus riff with distortion.
This will be my first attempt at guitar tab, so shoot me an e-mail if you like it, 
it, can't stand it, think it's better than sex, etc.

Mike

| /  slide up
| \  slide down
| h  hammer-on
| p  pull-off
| ~  vibrato
| +  harmonic
| x  Mute note
============================================================================
Suggest correction
What's this?
You can suggest a correction to this tab. Community and Mods will review your correction and vote to approve or reject it.
comments
We did not receive enough feedback on this tab! Please rate:
print report bad tab
1 2 3 4 5
guest
You may want to rate the tab now too:
select rating
Please do not post tabs as comments. Select "correction" instead!